Guitar Tabs, Chords and Lyrics
Major upgrade!! After one year development the new version of Chordie is now online! Please give feedback.


All the Wild Horses  Ray LaMontagne

Ray Lamontagne - All the wild horses
3/4 time 100 Bpm
Part 1
Guitar 2 is actually a string section, but it'll be fine on guitar.
Guitar 1
| [G]+ + + | [Bm]+ + + | + + + | + + + | + +
+ |
 
 e|--3-----------3--3--------------2--2--2-----------2--2--2-----------2--2--2-----------2--2-|
 B|--3-----------3--3--3-----------3--3--3-----------3--3--3-----------3--3--3-----------3--3-|
 G|--0-----------0--0--4-----------4--4--4-----------4--4--4-----------4--4--4-----------4--4-|
 D|--0-----------0--0--4-----------4--4--4-----------4--4--4-----------4--4--4-----------4--4-|
 A|--2-----2-----2--2--2-----2-----2--2--2-----2-----2--2--2-----2-----2--2--2-----2-----2--2-|
 E|--3-----3-----3--3--x-----x-----x--x--x-----x-----x--x--x-----x-----x--x--x-----x-----x--x-|

| Guitar 2 | | | |
|
 
 e|-----------------|-----------------|-----------------|-----------------|------------------|
 B|--------------0--|--3~~~~~~~~~~~~~-|-----------------|-----------------|------------------|
 G|--0~~~~~~~-2-----|-----------------|-----------------|-----------------|------------------|
 D|-----------------|-----------------|-----------------|-----------------|------------------|
 A|-----------------|-----------------|-----------------|-----------------|------------------|
 E|-----------------|-----------------|-----------------|-----------------|------------------|

Part 2
Guitar 1
| [G]+ + + | [Bm]+ + + | [Em]+ + + | + + + | + +
+ |
 
 e|--3-----------3--3--------------2--2--0-----------0--0--0-----------0--0--0-----------0--0-|
 B|--3-----------3--3--3-----------3--3--0-----------0--0--0-----------0--0--0-----------0--0-|
 G|--0-----------0--0--4-----------4--4--0-----------0--0--0-----------0--0--0-----------0--0-|
 D|--0-----------0--0--4-----------4--4--2-----------2--2--2-----------2--2--2-----------2--2-|
 A|--2-----2-----2--2--2-----2-----2--2--2-----2-----2--2--2-----2-----2--2--2-----2-----2--2-|
 E|--3-----3-----3--3--x-----x-----x--x--0-----0-----0--0--0-----0-----0--0--0-----0-----0--0-|

| Guitar 2 | | | |
|
 
 e|-----------------|-----------------|-----------------|-----------------|------------------|
 B|--------------0--|--3-----------5--3-4/5~~~~~~~~~~~~-|-----------------|------------------|
 G|--0~~~~~~~-2-----|-----------------|-----------------|-----------------|------------------|
 D|-----------------|-----------------|-----------------|-----------------|------------------|
 A|-----------------|-----------------|-----------------|-----------------|------------------|
 E|-----------------|-----------------|-----------------|-----------------|------------------|

Part 3
Only Guitar 1 plays.
Just keep strumming the same pattern throughout this part.
You can of course change it up a bit,
for it will become very boring, be creative!
[G]All the wild [Bm]horses
[G]All the wild [Bm]horses
[G]Tethered with [Bm]tears in their [Em]eyes
[C]May no man's touch ever [G]tame
[C]May no man's reigns ever [G]chain you
And may [G]no man's [D]weight [Em]ever defray yo[C]ur soul
And as for the [G]clouds
Just let them [D]roll
[G]Roll a[D]way
[Em]Roll a[C]way
As for the [G]clouds
Just let them [D]roll
[C]Roll a[G]way
[C]Roll a[G]way
Song order
2x part 1
1x part 2
1x part 3
2x part 1
1x part 2

Important: The song above is NOT stored on the Chordie server. The original song is hosted at www.guitartabs.cc. Chordie works as a search engine and provides on-the-fly formatting. Chordie does not index songs against artists'/composers' will. To remove this song please click here.

Text color:
Chord color:
Chord grids: 
Font size:    
Page size: 

Bm C D Em G
Rate #2 of 8 versions

Login - add to songbook

SHARE PAGE  



You need to log in to post comments