Guitar Tabs, Chords and Lyrics
Update 25:10. 13:00. Site is back up running again. Songbooks are recovered. Woring on getting search back up..


Before I Fall to Pieces  Razorlight

7th fret!
Chords
[G] [D]  
 
 e|0---------------|----3-----3-----2--3-2-0-0|
 b|0---------------|----3-----3-----3--3-3-3-3|
 g|0---------------|----0-----0-----2--2-2-2-2|
 d|0---------------|----0-----2-----0--0-0-0-0|
 a|0---------------|----2-----3-----0--0-0-0-0|
 e|0---------------|----3-----x-----x--x-x-x-x|

(1st time only) (x6) (x6) (x6)
(Strumming sequence - down, down, up, up, down, up!)
( Tab from: http://www.guitartabs.cc/tabs/r/razorlight/before_i_fall_to_pieces_tab_ver_3.html )
Tabs
 
 e|------------10------------------------| ------------------|e
 b|--------10------10---12--10--12--10---| ----10-10-10-10---|b
 g|----11--------------------------------|X2
 d|--------------------------------------|
 a|--------------------------------------|
 e|--------------------------------------|
 e|------------10--------------------------|
 b|--------10------10---12--10--12--10-----|
 g|----11-------------------------------9--|X2
 d|----------------------------------------|
 a|----------------------------------------|
 e|----------------------------------------| 

enjoy my fellow guitarists! :D

Important: The song above is NOT stored on the Chordie server. The original song is hosted at www.guitartabs.cc. Chordie works as a search engine and provides on-the-fly formatting. Chordie does not index songs against artists'/composers' will. To remove this song please click here.

Text color:
Chord color:
Chord grids: 
Font size:    
Page size: 

D G
Rate #11 of 11 versions

Login - add to songbook

SHARE PAGE  




You need to log in to post comments