Guitar Tabs, Chords and Lyrics
Update 25:10. 13:00. Site is back up running again. Songbooks are recovered. Woring on getting search back up..


Bright Side of Life  Rebelution

Bright Side of Life - Rebelution
Obs: The guitar intro is correct on the the_quiet_man tab.
This is the intro of the sax (trompete) part.
 
 e-------------5---------5--------10-8----10-8----10-8--------|
 b-------5-6-8-----5-6-8-------10------10------10-----10-10-8-|
 g--7--7---------7--------------------------------------------|
 d------------------------------------------------------------|
 a------------------------------------------------------------|
 e------------------------------------------------------------|
 e--------------5--------5------10-8----10-8----10-8--------|
 b--6-----5-6-8------6-8-----10------10------10-------------|
 g----7----------7-7----------------------------------------|
 d----------------------------------------------------------|
 a----------------------------------------------------------|
 e----------------------------------------------------------|

[Dm]Don't trip you know I'm always by your side
You'll be fine for the ride just be calm
Take a breath and don't cry[Bb], oh my my[Am]
Look on the bright side
[Dm]Rise up now make an impact
Now get your bags packed
Think about your life but girl don't you[Bb] cry, oh my[Am] my
Look on the bright side of life
[Dn]Somebody told me everything's alright
That life's too short to be afrai[Bb]d
Just leading up to what I want[Am] to say
Living should be giving it away
[Dm]You're contemplating every single day
And learning so we educate a[Bb]nd be positive
It is what it is, come on [Am]set examples for the kids
[Gm]I don't want to scare you no I d[C]on't
Riff on the C chord
 
 e---------------------------|
 b-5-----5-----5h6-----------|
 g---5-----5-----------------|
 d-----5-----5---------------|
 a---------------------------|
 e---------------------------|

Gm C C#
It's time you be a role model so open up
Dm Bb Am (2x) repeat intro of the sax
[Dn]Somebody told me everything's alright
That life's too short to be afrai[Bb]d
Just leading up to what I want[Am] to say
Living should be giving it away
[Dm]You're contemplating every single day
And learning so we educate a[Bb]nd be positive
It is what it is, come on [Am]set examples for the kids
[Gm]I don't want to scare you no I d[C]on't
Riff on the C chord
 
 e---------------------------|
 b-5-----5-----5h6-----------|
 g---5-----5-----------------|
 d-----5-----5---------------|
 a---------------------------|
 e---------------------------|

[Gm]It's time you be a role mod[C]el so
Riff on the C chord
 
 e---------------------------|
 b-5------5h6h5--6h8h6h8-----|
 g---5-----------------------|
 d-----5---------------------|
 a---------------------------|
 e---------------------------|

[Gm]I don't want to scare you no I d[C]on't
 
 e---------------------------|
 b-5-----5-----5h6-----------|
 g---5-----5-----------------|
 d-----5-----5---------------|
 a---------------------------|
 e---------------------------|

Gm C C#
It's time you be a role model so open up
[Dm]Don't trip you know I'm always by your side
You'll be fine for the ride just be calm
Take a breath and don't[Bb] cry, oh my my[Am]
Look on the bright side
[Dm]Rise up now make an impact
Now get your bags packed
Think about your life but girl [Bb]don't you cry, oh m[Am]y my
Look on the bright side
[Dm]Be kind, now keep a smile, keep your head up
And try to find a friend or a child
And encourage their [Bb]life, oh my[Am] my
Look on the bright side
[Dm]Rise up now make an impact
Now get your bags packed
Think about your life but girl don't [Bb]you cry, oh m[Am]y my
Look on the bright side of life
Final part of sax (Dm Bb Am Gm F E D C D)
(2x)
 
 e-----------5----------5-------------------------------|
 b-----5-6-8------5-6-8----10-10-8-8-6-6-5-5------------|
 g--7-----------7----------------------------7-5---7----|
 d------------------------------------------------------|
 a------------------------------------------------------|
 e------------------------------------------------------|

(2x)
 
 e--10-8-10-10-8------------------------------------|
 b---------------11----10-10-8-8-6-6-5-5------------|
 g---------------------------------------7-5-7------|
 d--------------------------------------------------|
 a--------------------------------------------------|
 e--------------------------------------------------|
 e--10-10-10-10-10----------------------|
 b--------------------------------------|
 g--------------------------------------|
 d--------------------------------------|
 a--------------------------------------|
 e--------------------------------------|

Final part of guitar (muted on the sax part)
[Dm] [Bb]  
 
 e---------------------------------------|
 b---------------------------------------|
 g---------------------------------------|
 d----7-7-5-5-3-3-2-2-0------------------|
 a----------------------3--5/------------|
 e---------------------------------------|

(2x)
 
 e-----------------------------------------|
 b-----------------------------------------|
 g-----------------------------7/----------|
 d--------------7/-------------------------|
 a--5-5-5-5-5-5-----5-5-5-5--5-------------|
 e-----------------------------------------|
 e--------------------------------------|
 b--------------------------------------|
 g--------------------------------------|
 d-------------7/-----------------------|
 a---5-5-5-5-5--------------------------|
 e--------------------------------------|
 e--------------------------------------|
 b--------------------------------------|
 g--------------------------------------|
 d---------------------------5-5--------|
 a--------------5-5-7-7-8-8-------------|
 e---6--6-6-8-8-------------------------|
 e--------------------------------------|
 b--------------------------------------|
 g--------------------------------------|
 d----7-7-5-5-3-3-2-2-0-----------------|
 a----------------------3--5/-----------|
 e--------------------------------------|

1x
 
 e--------------------------------|
 b--------------------------------|
 g--------------------------------|
 d--------------------------------|
 a---5-5---5-5--------------------|
 e--------------------------------|


Important: The song above is NOT stored on the Chordie server. The original song is hosted at www.guitartabs.cc. Chordie works as a search engine and provides on-the-fly formatting. Chordie does not index songs against artists'/composers' will. To remove this song please click here.

Text color:
Chord color:
Chord grids: 
Font size:    
Page size: 

Am Bb C Dm Gm
Rate #1 of 2 versions

Login - add to songbook

SHARE PAGE  




You need to log in to post comments