Guitar Tabs, Chords and Lyrics
Server problems seems to be fixed. Chordie has been experiencing problems with songs disappearing. These issues now seems to be fixed, but still verifying the fix. If you find anything strange, please email admin@chordie.com.


Blood Sugar Sex Magik  Red Hot Chili Peppers

*************************
= THE POWER OF EQUALITY =
*************************
(Tune high E down to Eb)
Here's the verse rhythm:
 
 e:---0---0-0-0-0-0--0-0-0--0-0-0-0-|--0--0-0-0-0-0--0-0-0--0-0-0-0-|
 B:---7---5-------7--5---7--5-------|--7--5-------7--5---7--5-------|
 G:---6-----------6------6----------|--6----------6------6----------|
 D:---------------------------------|-------------------------------|
 A:---------------------------------|-------------------------------|
 E:---------------------------------|-------------------------------|

Play this at "Can I get just a little bit of power?"
 
 e:6--6--6--6--6--6--6--6|
 B:5--5--5--5--5--5--5--5|
 G:5--5--5--5--5--5--5--5|
 D:4--4--4--4--4--4--4--4|
 A:----------------------|
 E:----------------------|

Chorus:
PM................
 
 e:----------------------------------|-----------------------------------|
 B:----------------------------------|-----x--9--------11------11--9-----|
 G:----6-6--6---5--5-5---4-4---------|-----x--9--9-----11--11--11--9-----|
 D:---------------------------6--5---|--4-----------------------------11-|
 A:----------------------------------|-----------------------------------|
 E:----------------------------------|-----------------------------------|

Play solo over this rhythm:
 
 e:-----------14-14---13-13---6--|------------------13-13-13----6--|
 B:-------------------12-12---5--|---------------------12-12----5--|
 G:---7p5~----10------12---------|--7p5~--10/12--------12----------|
 D:------------------------------|---------------------------------|
 A:------------------------------|---------8/10--------------------|
 E:------------------------------|---------------------------------|

Solo:
 
 e:-----------------------------|-----------------------------|
 B:-----------------------------|-----------------------------|
 G:----10-----------------------|--13-12-------------10-------|
 D:-------12-------------10-12--|-----------------12----10p12-|
 A:-----------------------------|-----------------------------|
 E:-----------------------------|-----------------------------|
 e:---------------------|------------------------------|
 B:---------------------|--13-15-----13-15-------------|
 G:-10------------------|------------------------------|
 D:----12---------------|------------------------------|
 A:---------------------|------------------------------|
 E:---------------------|------------------------------|
 e:--14-14----------------------|------------------------------|
 B:--------13-15--10-12---------|------------------------------|
 G:----------------------12-10--|-----10----------12-10--13-12-|
 D:-----------------------------|--12--------------------------|
 A:-----------------------------|------------------------------|
 E:-----------------------------|------------------------------|
 e:-------------------------14-|-------------------------------------------|
 B:----------------------------|---15-13-15---15-13-15---15-13-15--13/15\--|
 G:------14-12-10----10--------|-------------------------------------------|
 D:---------------12-----------|-------------------------------------------|
 A:----------------------------|-------------------------------------------|
 E:----------------------------|-------------------------------------------|

There's also a second kind of solo/bridge thingee:
 
 e:---------------------------|------------------|----------------|
 B:-14b16------(16)-----(16)--|--r(15)-----(15)--|-------(15)b(16)|
 G:---------------------------|------------------|----------------|
 D:---------------------------|------------------|----------------|
 A:---------------------------|------------------|----------------|
 E:---------------------------|------------------|----------------|

Outro:
 
 e:-0--0--0--0--0--0--0--0--0--0--0--0--0--0--0--0--|
 B:-7--7--7--7--7--7--7--7--7--7--7--7--7--7--7--7--|
 G:-6--6--6--6--6--6--6--6--6--6--6--6--6--6--6--6--|
 D:-------------------------------------------------|
 A:-------------------------------------------------|
 E:-------------------------------------------------|
 e:--0--0--0--0--0--0--0-0--0--0--0--0--0----0-|
 B:--7--7--7--7--7--7--7/9--9--9--9--9--9------|
 G:--6--6--6--6--6--6--6/8--8--8--8--8--8--8---|
 D:--------------------------------------------|
 A:--------------------------------------------|
 E:--------------------------------------------|
 e:--0--0--0--0--0--0--0--0--0--0--0--0--0--0--0--0--|
 B:--7--7--7--7--7--7--6--6--6--6--6--6--6--6--6--6--|
 G:--6--6--6--6--6--6--5--5--5--5--5--5--5--5--5--5--|
 D:--------------------------------------------------|
 A:--------------------------------------------------|
 E:--------------------------------------------------|
 e:--0--0--0--0--0--0--0--0--0--0--0--0--0--0--0--0--|
 B:--6--6--6--6--6--6--6--6--6--6--6--6--6--6--6--6--|
 G:--5--5--5--5--5--5--5--5--5--5--5--5--5--5--5--5--|
 D:--------------------------------------------------|
 A:--------------------------------------------------|
 E:--------------------------------------------------|
 e:--0--0--0--0--0--0--0--0--0--0--0--0--0--0--0--0--|
 B:--7--7--7--7--7--7--7--7--7--7--7--7--7--7--7--7--|
 G:--6--6--6--6--6--6--6--6--6--6--6--6--6--6--6--6--|
 D:--------------------------------------------------|
 A:--------------------------------------------------|
 E:--------------------------------------------------|
 e:--0--0--0--0--0--0--0--0--0--0--0--0--0--0--0--0--|
 B:--7--7--7--7--7--7--7--7--9--9--9--9--9--9--9--9--|
 G:--6--6--6--6--6--6--6--6--8--8--8--8--8--8--8--8--|
 D:--------------------------------------------------|
 A:--------------------------------------------------|
 E:--------------------------------------------------|
 e:--0--0--0--0--0--0--0--0--0--0--0--0--0--0--0--0--|
 B:--7--7--7--7--7--7--6--6--6--6--6--6--6--6--6--6--|
 G:--6--6--6--6--6--6--5--5--5--5--5--5--5--5--5--5--|
 D:--------------------------------------------------|
 A:--------------------------------------------------|
 E:--------------------------------------------------|
 e:--0--0--0--0--0--0--0--0-----------------|
 B:--6--6--6--6--6--6--6--6-----------------|
 G:--5--5--5--5--5--5--5--5-----------------|
 D:------------------------------4--3----2--|
 A:---------------------------5-------------|
 E:-----------------------------------------|

**********************
= IF YOU HAVE TO ASK =
**********************
Intro and Rhythm:
 
 e:-x-x-x-x-x-x-x-x-x-x-x-x-x--|-x-x-x-x-x-x-x-x-x-x-x-x-x--|-x-x-x-x-x-x-x-x-
 B:-6-x-x-6-x-x-6-x-x-6-x-x-6--|-6-x-x-6-x-x-6-x-x-6-x-x-6--|-6-x-x-6-x-x-6-x-
 G:-5-x-x-5-x-x-5-x-x-5-x-x-5--|-5-x-x-5-x-x-5-x-x-5-x-x-5--|-5-x-x-5-x-x-5-x-
 D:----------------------------|----------------------------|-----------------
 A:----------------------------|----------------------------|-----------------
 E:----------------------------|----------------------------|-----------------
 e:x-x-x-x-x--|-x-x-x-x-x-x-x-x-x-x-x-x-7-7|
 B:x-6-x-x-6--|-6-x-x-6-x-x-6-x-x-6-x-x-6-6|
 G:x-5-x-x-5--|-5-x-x-5-x-x-5-x-x-5-x-x-5-5|
 D:-----------|----------------------------|
 A:-----------|----------------------------|
 E:-----------|----------------------------|

The chorus is played with two guitars:
 
 e:------------x------------------------|-------------------------------|
 B:------------x---10/13----------------|-------------------------------|
 G:------------x-------------8/12-------|-------------------------------|
 D:--8--10-----x---------------------8--|--10----------8-------8---8----|
 A:-------------------------------------|-------------------------------|
 E:-------------------------------------|-------------------------------|
 e:----------11-------13b14r13----------|------------11-----13--13b14r13--11|
 B:--13----------13-----------------13--|---13-----------13-----------------|
 G:-------------------------------------|-----------------------------------|
 D:-------------------------------------|-----------------------------------|
 A:-------------------------------------|-----------------------------------|
 E:-------------------------------------|-----------------------------------|

Then there's a bridge part:
[G9] [Gb9] [F9] [C7] [Ebmaj9] [Bb7] [D7#9]  
Repeat those chords again, then twice more with some left hand muting.
Go to this solo, with the rhythm in the background:
 
 e:-------------------------|-----------------------|-----------------------|
 B:-------------------------|-----------------------|-----------------------|
 G:------13r12--10--12b14---|-------------13r12p10--|--------10b12---10~----|
 D:-------------------------|-----------------------|-12~-------------------|
 A:-------------------------|-----------------------|-----------------------|
 E:-------------------------|-----------------------|-----------------------|
 e:----------------------|--------------------------------------------|
 B:------------13r12--10-|-----10~------------10---------10--------10-|
 G:----------------------|-12----------13b14------13b14------13b14----|
 D:----------------------|--------------------------------------------|
 A:----------------------|--------------------------------------------|
 E:----------------------|--------------------------------------------|

feedback
 
 e:-------------------------|--------------------|--------------------------|
 B:-------------------------|--------------------|--------------------------|
 G:----13b14----------------|--------------------|--------------------------|
 D:-------------------6r5p3-|--------------------|------------------x\--x/--|
 A:-------------------------|---5~----2b3r2------|--------------------------|
 E:-------------------------|--------------------|--x\-----x\--x/-----------|
 e:-------------10---------|----------------------------------------|
 B:---------13-------------|----------------------------------------|
 G:-12b14------------13r12-|--10~------12p10------10h12p10------10--|
 D:------------------------|--------0---------12------------12------|
 A:------------------------|----------------------------------------|
 E:------------------------|----------------------------------------|

hold
 
 e:---------5--8--10-------------------------------------|-----------|
 B:-------------------13--10----------10-----------------|-----------|
 G:-12b13----------------------12b14------12--10~--12p10-|--12b13----|
 D:------------------------------------------------------|-----------|
 A:------------------------------------------------------|-----------|
 E:------------------------------------------------------|-----------|

bend
 
 e:-----------------------------|--------------------------------------|
 B:--13--13--13--13--13--13--13-|--15p13-------------------------------|
 G:-----------------------------|--------------------------------------|
 D:-----------------------------|-----------15--12---------------------|
 A:-----------------------------|----------------------\8--10--8----8--|
 E:-----------------------------|--------------------------------------|
 e:--------------------------------------------------|
 B:--------------------------------------------------|
 G:--------------------------------------------------|
 D:-----------10-11-12----------10-11-12----------10-|
 A:--10-11-12----------10-11-12----------10-11-12----|
 E:--------------------------------------------------|
 e:-------------------------------------|---------------------------------|
 B:-------------------------------------|-13b15-------13~-----------------|
 G:-------------------12b14r12p10-------|--------------------13r12p10-----|
 D:11-12-----------10-------------------|------------------------------12-|
 A:-------10-11-12----------------------|---------------------------------|
 E:-------------------------------------|---------------------------------|
 e:--------------------------------|------------|
 B:--------------------------------|------------|
 G:-10h12--------------------------|------------|
 D:--------15-12-11-10-------------|------------|
 A:--------------------12--11-10\8-|-b9--\------|
 E:--------------------------------|------------|

When you're finished, play the rhythm twice more, but end the second one
with this measure:
 
 e:--x-x-x-x-x-x-x-x-------------------|
 B:--6-x-x-6-x-x-6-x-------------------|
 G:--5-x-x-5-x-x-5-x-5h7-5-------------|
 D:------------------------7\5-3-------|
 A:-------------------------------5-3h5|
 E:------------------------------------|

*********************
= BREAKING THE GIRL =
*********************
12 STRING ACCOUSTIC TUNED DOWN A HALF STEP (D,G,C,F,A,D)
VERSE CHORD SEQUENCE
 
 e------------------------------------------------------
 B---2---2?2---4---5---5---5---7---7---7-----9----10----
 G---2---2?2---4---5---5---5---7---7---7-----9----9-----
 D---2---2?2---4---5---5---5---7---7---7-----9----11----
 A---0---4?0?0---0---7---0---0?10?0?0----0--------------
 E------------------------------------------------------

PRE-CHORUS
OPEN CHORDS
[C] [G] [AM] [AM/B] [C] [G] [F]  
CHORUS CHORDS
 
 e-------------------------------------10------
 B-------------------------------------9-------
 G ---5------7-------9---------12------9-------
 D ---7------6-------7---------9------ 9--------
 A ---7--------------------------------7--------
 E ---5 -----7-------8---------10------0---------
 e--------------------------------------1---------------
 B--------------------------------------1---------------
 G ---5------7-------9--------12--------3------8-----7--
 D ---7------6-------7---------9------- 2------7-----6--
 A ---7---------------------------------2------8-----7--
 E ---5 -----7-------8---------10-------1---------------

PERCUSSIVE BRIDGE SECTION
 
 e---5-----------------------5----------------------5---------------------0-----0----0--
 B?5----------------------5----------------------5---------------------15?15?15---------
 G?5----------------------5----------------------5---------------------13----13---13----
 D?7----------------------7----------------------7---------------------14----14---14----
 A------0----0-----0---0------0---0----0---0--------0?0----0---0------------------------
 E------0----0-----0---0------0---0----0---0--------0---0----0---0----------------------

***************
= FUNKY MONKS =
***************
 
 ----------------|--------------------------------------------------
 ---3f---3-3-3---|-----3f---------5b(6)--5--------------------------
 ---3f---3-3-3---|-----3f---------5b(6)--5-(3)/5\3\0----------------
 ------5-------5-|-3/5----5\3\0-------------------------------------
 ----------------|--------------------------------------------------
 -3--------------|--------------------------------------------------

^f indicates 'fingerstyle' ^'Quick bend'
as it is marked; interpret
as you will
 
 ----------------------|-----------------------0-------------------
 -----3f---3-3-3-------|-----------------5b(6)-1-3-----------------
 -----3f---3-3-3/5\3---|-----------------5b(6)---3b(4)-------------
 --------5-----------5-|-3/5\3-------------------------------------
 ----------------------|-------5--3\1------------------------------
 -1/3------------------|-------------------------------------------

^^^^Guitar two; these
are quick bends also
****************
= SUCK MY KISS =
****************
Key To Tab
X - Muted strings
/ - Slide
Intro (Repeat 2x) p - Pull Off
h - Hammer On
 
 |---------------------------------------------------------------------------|
 |---------------------------------------------------------------------------|
 |-----0--------------0--------------0-------------------------------7/9-9-X-|
 |-----0--------------0--------------0-----------------3-3-3-5/7-7-7---------|
 |-----1--------------1--------------1---------3p5-5-5-----------------------|
 |-1-3---1-3-X-X--1-3---1-3-X-X--1-3---1-3-X-X-------------------------------|

Main Riff
 
 |--------------------------------| This is played during the all the
 |--------------------------------| verses, except the "Aw baby . . "
 |--------------------------------| parts.
 |--------------------------------|
 |--------------------------1h3p1-|
 |-1-3-3-1-3-3--1-3-3-1-3-3-------|

This next part is played during the lines "Aw baby think you can, be my girl
I'll be your man", "Aw baby just for you I'd steal anything that you want me
to", "aw babay, please be there, suck my kiss cut me my share", and "Aw baby,
do me now, do me here, I do allow":
 
 |---4-|---4----5-5-5-|
 |---4-|---4----5-5-5-|
 |-----|-----4--------|
 |-3---|-3---4--------|
 |-3---|-3---4--------|
 |-----|--------------|

The Chords for the chorus are:
[E]Hit me[Dsus4], you [D5]can'[Dsus4]t hurt[D5] me[A]
N.C.
suck my kiss
[E5]kiss m[Dsus4]e plea[D5]se [Dsus4]perver[D5]t m[Dsus4]e[A]
N.C.
stick with this
E Dsus4 D5 Dsus4 A N.C.
is she talking dirty
give to me s[E]weet sacred blis[Dsus4]s
Dsus4 A5 N.C.
your mouth was made to suck my kiss
*********************
= I COULD HAVE LIED =
*********************
There are 2 guitars in this song, particularly during the chorus.
The little texture fills in the verses can be played by the
second guitar as well.
Intro (0:00)
 
 e||--------------------------------|-----------------------------------|
 B||--------------------------------|-----------------------------------|
 G||--------------------------------|-----------------------------------|
 D||----0--4--0--4--0--4/7-5-4-0----|-----0--4--0--4--0--4/7-5-4-0------|
 A||-0h2--2--2--2--2--2-------------|-0h2--2--2--2--2--2----------------|
 E||---------------------5---2---3--|----------------------5---2---3----|

Verse 1 (0:14)
 
 e|--------------------------------|------------------------------------|
 B|--------------------------------|------------------------------------|
 G|--------------------------------|------------------------------------|
 D|----0--4--0--4--0--4/7-5-4-0----|-----0--4--0--4--0--4/7-5-4-0-------|
 A|-0h2--2--2--2--2--2-------------|-0h2--2--2--2--2--2-----------------|
 E|---------------------5---2---3--|----------------------5---2---3-----|

There must be something... feel
 
 e|--------------------------------|------------------------------------|
 B|--------------2h3p2-------------|------------------------------------|
 G|--------------------------------|------------------------------------|
 D|----0--4--0--4-----4/7-5-4-0----|-----0--4--0--4--0--4/7-5-4-0-------|
 A|-0h2--2--2--2-------------------|-0h2--2--2--2--2--2-----------------|
 E|---------------------5---2---3--|----------------------5---2---3-----|

Stare she bares... bleed
Pre-Chorus (0:42)
B(barre2) D(barre5) A(open) G6(open)
I could never...
(0:48)
 
 e|--------------------------------|------------------------------------|
 B|--------------2h3p2--(6r5)------|------------------------------------|
 G|--------------------------------|------------------------------------|
 D|----0--4--0--4-----4/7-5-4-0----|-----0--4--0--4--0--4/7-5-4-0-------|
 A|-0h2--2--2--2-------------------|-0h2--2--2--2--2--2-----------------|
 E|---------------------5---2---3--|----------------------5---2---3-----| 

Verse 2 (1:03)
 
 e|--------------------------------|------------------------------------|
 B|--------------------------------|------------------------------------|
 G|--------------------------------|--------------------------(2/4)-----|
 D|----0--4--0--4--0--4/7-5-4-0----|-----0--4--0--4--0--4/7-5-4-0-------|
 A|-0h2--2--2--2--2--2-------------|-0h2--2--2--2--2--2-----------------|
 E|---------------------5---2---3--|----------------------5-------3-----|

A mountain never seems... seek
 
 e|--------------------------------|------------------------------------|
 B|----------------------------0---|------------------------------------|
 G|--------------------------------|------------------------------------|
 D|----0--4--0--4--0--4/7-5-4------|-----0--4--0--4--0--4/7-5-4-0-------|
 A|-0h2--2--2--2--2--2-------------|-0h2--2--2--2--2--2-----------------|
 E|---------------------5---2------|----------------------5---2---------|

The sweetest feeling... true
Pre-Chorus (1:30)
B(barre2) D(barre5) A(open) G6(open)
I could never...
(1:37)
 
 e|--------------------------------------|
 B|--------------------------------------|
 G|--------------------------------------|
 D|-----0---4---0---4---0---4/7-5\4-0----|
 A|-0h2---2---2---2---2---2--------------|
 E|---------------------------5---2---3--|

Chorus (1:44)
E(barre7) G(barre10) D(barre5) C(barre 3)
I could have lied...
Showed her...
Solo (1:58) - over Pre-Chorus chords and at (2:25), the intro riff.
 
 e|-----------------------------------------------------------------------|
 B|-----------------------------------------------------------------------|
 G|--------------------------------------11--11--11-11-9-11--11-9-11------|
 D|------------7-9/11-11\9--------9-9/12----------------------------------|
 A|--------7/9-------------10--10-----------------------------------------|
 E|-7--10-----------------------------------------------------------------|
 e|-----------------------------------------------------------------------|
 B|-/10--8---------------------------------------12----/10-12-10----------|
 G|--------11--7--7-9-7-9---/11-11-/11-11-/11-11----11-----------11-12p11-|
 D|----------------------(9)----------------------------------------------|
 A|-----------------------------------------------------------------------|
 E|-----------------------------------------------------------------------|
 e|-----------------------------------------------------------------------|
 B|-----------------------------------------------------------------------|
 G|-11h12p11-9-11-----------12-11-11h12p11-----------11-------------------|
 D|---------------9-7-9-9-9----------------12-9-9-12----12-9-/9-9-7-9-/4--|
 A|-----------------------------------------------------------------------|
 E|-----------------------------------------------------------------------|
 e---------------------------12-/14--/17\15\14-10-------------------------|
 B|---------------------12----------------------10\-----------------/7-/7-|
 G|----------------9/12----------------------------/(9)\7-(7)-7-9-7-------|
 D|-/5--5/9--9/12---------------------------------------------------------|
 A|-----------------------------------------------------------------------|
 E|-----------------------------------------------------------------------|
 e|-----------------------------------------------------------------------|
 B|-----------------------------------------------------------------------|
 G|-2-2-2/4---------------------------------------------------------------|
 D|----------4/5\4-2p0----------------------------------------------------|
 A|---------------------4-and straight into verse 3-----------------------|
 E|-----------------------------------------------------------------------|

Verse 3 (2:39)
 
 e|--------------------------------|------------------------------------|
 B|--------------------------------|------------------------------------|
 G|--------------------------------|------------------------------------|
 D|----0--4--0--4--0--4/7-5-4-0----|-----0--4--0--4--0--4/7-5-4-0-------|
 A|---2--2--2--2--2--2-------------|-0h2--2--2--2--2--2-----------------|
 E|---------------------5---2---3--|----------------------5---2---3-----|

But now she's gone... stay
 
 e|--------------------------------|------------------------------------|
 B|--------------2h3p2---------(2h3p2)----------------------------------|
 G|--------------------------------|------------------------------------|
 D|----0--4--0--4-----4/7-5-4-0----|-----0--4--0--4--0--4/7-5-4-0-------|
 A|-0h2--2--2--2-------------------|-0h2--2--2--2--2--2-----------------|
 E|---------------------5---2---3--|----------------------5---2---3-----|

You see she hides... spared
Chorus (3:06)
E(barre7) G(barre10) D(barre5) C(barre 3)
I could have lied...
Showed her...
Chorus (3:20) - with Solo over.
 
 e|-12------------10/12---------------------------------------|
 B|---12-10/12-12-------12-10-8-10-8-10/12-10/12--10--8--8-10-|
 G|-----------------------------------------------------------|
 D|-----------------------------------------------------------|
 A|-----------------------------------------------------------|
 E|-----------------------------------------------------------|

I could have lied...
 
 e|-------------------------------x-------------------------5/7-10-7-10-|
 B|-8-10-8------8h10p8------------x--8-10-12 10h12p10------8------------|
 G|--------9(9)--------7-9-7-9-/9-x-------------------12-9--------------|
 D|-------------------------------x-------------------------------------|
 A|-------------------------------x-------------------------------------|
 E|-------------------------------x-------------------------------------|

I showed her...
Outro (3:33) - over arpeggiating Chorus chords.
 
 e|-7---7p5---/7-/7\5---------------------------------------------------|
 B|---------8--------(7)-10p8 /10\8-------------------------------------|
 G|-----------------------------------11h12p11-h12b13r\11----\4-7-4-4---|
 D|---------------------------------------------------------------------|
 A|---------------------------------------------------------------------|
 E|---------------------------------------------------------------------|
 e|----------------------------------------------------7.....let ring--||
 B|---------------------------------------------------8----------------||
 G|--------------7-------------------------/9-9-9----9-----------------||
 D|------7-(7)/9---9\7-5-7-5-7-5-/4\2---2-2---------7------------------||
 A|-7-10-------------------------------------------7-------------------||
 E|--------------------------------------------------------------------||

********************************
= MELLOWSHIP SLINKY IN B MAJOR =
********************************
 
 -----------|----------------------|-----------|-------------------------|
 -----------|----------------------|-----------|-------------------------|
 -----------|----------------------|-----------|-------------------------|
 -----------|----------------------|-----------|-------------------------|
 -4-3-2-5-6-|-7-------5---7-7-5-7+-|-4-3-2-5-6-|-7-------5---7-------5---|
 -----------|---0-0-7---7----------|-----------|---0-0-7---7---0-0-7---7-|

Repeat twice -- second time without the last four notes then:
 
 -------------------
 -12-10-9-10-9------
 --------------7/---
 -----------------9-
 -------------------
 -------------------

That basic riff repeats for a while. Let's jump to my favorite part, the
solo (let the 0's ring here):
 
 -0----0--0----0--0----0--0------0---0-----|
 -0----0--0----0--0----0--0------0---0-----|
 -4/7--7--7/9--9--9/11-11-11/14--14--14/16-|
 ------------------------------------------|
 ------------------------------------------|
 ------------------------------------------|
 -----------------------------------------------------|
 -----0--0------0--0------0--0------0--0------0--0--0-|
 -(2)/4--0--(2)/4--0--(2)/4--0--(2)/4--0--(2)/4--0--0-|
 -----------------------------------------------------|
 -----------------------------------------------------|
 -----------------------------------------------------|

Repeat those last two bars twice then these two twice:
 
 -----------------------------------------|
 -----------------------------------------|
 -----------------------------------------|
 -12+10---10+9-----9+7-----7+5-----5+7--7-|
 -------0-------0-------0-------0---------|
 -----------------------------------------|
 -----------------------------------------|
 -----------------------------------------|
 -----------------------------------------|
 -----------------------------------------|
 -------0-------0-------0-------0-------0-|
 -(3)/5---(3)/5---(3)/5---(3)/5---(3)/5---|

********************************
= THE RIGHTEOUS AND THE WICKED =
********************************
 
 E|--10-10xx10-10-10-10-x-------|--10-10xx10-10x10-10---------|
 B|--10-10xx10-10-10-10-x-------|--10-10xx10-10x10-10---------|
 G|-----------------------------|-----------------------10-9--|
 D|------------------------7-9--|------------------------9-9--|
 A|-----------------------------|-----------------------------|
 E|-----------------------------|-----------------------------|

"The chorus"
 
 E|----------------------------------6-6-x-6-
 B|--7b-----7b------7----------------5-5-x-5-
 G|--7b-----7b------7h9--------------5-5-x-5-
 D|-----9~-----9~-------9-7-9~---7-9---------
 A|------------------------------------------
 E|------------------------------------------

"the other chorus part"
 
 E|-7-7-7-7-7-7-7-7--7-7-7-7-7-7-7-7--4-4-4-4-4-4-4-4--6--6--6-
 B|-7-7-7-7-7-7-7-7--6-6-6-6-6-6-6-6--3-3-3-3-3-3-3-3--5--5--5-
 G|-7-7-7-7-7-7-7-7--7-7-7-7-7-7-7-7--4-4-4-4-4-4-4-4--6--6--6-
 D|------------------------------------------------------------
 A|------------------------------------------------------------
 E|------------------------------------------------------------

"and there is.......you can call it a solo"
 
 E|--------------------------------------------------
 B|--------------------------------------------------
 G|--------------------------------------------------
 D|--------------------------------------------------
 A|-5b7r5-----5b7r5-----5h7p5---------------5b7r5----
 E|--------7---------7--------7-5--2-0-2-5---------7-

****************
= GIVE IT AWAY =
****************
INTRO
 
 e||---------------------11p0-11p0-11p0--------|
 b||------------13-------13---13---13----------|
 g||------------11b12---11b12slowlydropback11--|
 D||-7--7-7-7----------------------------------|
 A||-0--0-0-0----------------------------------|
 E||-------------------------------------------|
 e|--------------------------------------------|
 b|------------13-------17-17-17-17-17-17-17---|
 g|------------11b12----16-16-16-16-16-16-16---|
 D|-7--7-7-7-----------------------------------|
 A|-0--0-0-0-----------------------------------|
 E|--------------------------------------------|

VERSE
 
 e|-----------------------------------------------------------------|
 b|---------------------------5~---------------------------b--------|
 g|*---7--6-5-------------7-8---------7-6-5~-----------7--5'-------*|
 D|*-7--------5-5-7---7-----------7---------5-5-7-------------5----*|
 A|--0---------------(0)-----------------------(0)------------------|
 E|-----------------------------------------------------------------|

CHORUS
 
 e|---------|
 b|---------|
 g|*-------*|

D|*-7-7-7-*| Play as fast as your wrist will go!
 
 A|--0-0-0--|
 E|---------|

SOLO
Improvise in E blues or E minor scale (The recording is a reversed track,
which is impossible to recreate normally)
ENDING
 
 e|----------------|
 b|----------------|
 g|*-------7-6-5~-*|
 D|*-7-7-x-7-6-5~-*|
 A|--7-7-x-5-4-3~--|
 E|--5-5-----------|

***********************************************************************
*************************
= BLOOD SUGAR SEX MAGIK =
*************************
Version 1
From: Michael Martin
Section: Intro
. . . . . . . . . .
 
 ------------------------------------------------------------
 ------------------------------------------------------------
 -2---5------------------------2---4-------------------------
 -2---5------------------------2---4-------------------------
 -0---3--5/7-3/5-1/3-X-X-X-X-X-0---2-3/5-2/3-----X-X-X-X-X---
 --------------------------------------------2/3-------------

Section: Fill
 
 ------------------------------------------------------------
 -------8-----------------8-10-8-----------------------------
 -9-7-9---9-7-9-----9-7-9--------9-7-9-----------------------
 ------------------------------------------------------------
 ------------------------------------------------------------
 ------------------------------------------------------------

**********************
UNDER THE BRIDGE
**********************
by THE RED HOT CHILI PEPPERS
 
 e---------------------------|---------------------------|
 B-3----------3--------------|---------------------------|
 G-------2-------2-----------|------------3--------------|
 D----4-----4----------------|-------4-------4---4-2-----|
 A-5-----------------4-2-----|----4-----4------------5-2-|
 E-----------------------5-4-|-2-------------------------|
 e-----------------------------|---------------------------|
 B-------------3h5p3-----------|---------------------------|
 G---------2---------2---------|------------3--------------|
 D-----4-----4-----------4/6-6-|-------4-------4---4-2-----|
 A-4/5---5---------------5/7-7-|----4-----4------------5-2-|
 E-----------------------------|-2-------------------------|
 e-----------------------------|---------------------------|
 B--------------3--------------|---------------------------|
 G---------2-------2-----------|------------3--------------|
 D-----4------4----------------|-------4-------4---4-2-----|
 A-4/5---5-------------4-2-----|----4-----4------------5-2-|
 E-------------------------5-4-|-2-------------------------|
 e------------------------------|----------------------------|
 B--------------3h5p3-----------|----------------------------|
 G---------2----------2---------|------------3-------3-------|
 D-----4------4-----------4/6-6-|-------4-------4------4-----|
 A-4/5---5----------------5/7-7-|----4-----4------4------4/7-|
 E------------------------------|-2--------------------------|
 e---------------------|-------------------------|----------------------|
 B-9----x--7--------x--|-------9----4-----5------|-9----x--7------------|
 G-9----x--8--------x--|-------9----4-----6------|-9----x--8------------|
 D-9----x--9--------x--|-9/11--9----6-----7------|-9----x--9------------|
 A-7----x--9--------x--|-9/11-------6-----7------|-7----x--9------------|
 E---------------------|-------------------------|----------------------|

Sometimes I feel like I don't have a partner Sometimes I feel like my
 
 e--------------------|--------------------|---------------------|-----------=---|
 B-9------5-----------|-9------7-----------|-9------4----5-------|-9----x--7-=---|
 G-9------6-----------|-9------8-----------|-9------4----6-------|-9----x--8-=---|
 D-11-----7-----------|-9------9-----------|-11-----6----7-------|-9----x--9-=---|
 A-11-----7-----------|-7------9-----------|-11-----6----7-------|-7----x--9-=---|
 E--------------------|--------------------|---------------------|-----------=---|

only friend is the city I live in the city of angels Lonely as I am=
toge-
 
 e-------------------|------------------|
 B-9------5----------|-9----------------|
 G-9------6----------|-8----------------|
 D-11-----7----------|-9----------------|
 A-11-----7----------|-7----------------|
 E-------------------|------------------|

ther we cry I
 
 e---------------------------|----------------------5h7p5--|
 B-9---9---7-----7-----------|------9----9--4----5-------5-|
 G-9---9---8-----8---8h9p8-8-|------9----9--4----6-6-------|
 D-9---9---9--9----8------9--|-9/11-9-11-9--6----7---------|
 A-7---7---9--9--------------|-9/11---11----6----7---------|
 E---------------------------|-----------------------------|

drive on her streets 'cause she's my companion I
 
 e---------------------------|-------------------5---------|
 B-9---9---7-----7-----------|------9----9--5-------5------|
 G-9---9---8-----8--8h9p8--8-|------9----9--6----------6---|
 D-9---9---9--9----8-----9---|-9/11-9-11-9--7--------------|
 A-7---7---9--9--------------|-9/11---11----7--------------|
 E---------------------------|-----------------------------|

through her hills 'cause she knows who I am She
 
 e----------------------------|----------------------5h7p5--|
 B-9---9---7-----7------------|------9----9--4----5-------5-|
 G-9---9---8-----8---8h9p8--8-|------9----9--4----6---------|
 D-9---9---9--9----8------9---|-9/11-9-11-9--6----7---------|
 A-7---7---9--9---------------|-9/11---11----6----7---------|
 E----------------------------|-----------------------------|

seems my good deeds and she kisses me windy
 
 e---------------------------|-------------------5---------|-7-|
 B-9---9---7-----7-----------|------9----9--5-------5------|-9-|
 G-9---9---8-----8--8h9p8--8-|------9----9--6--------------|-8-|
 D-9---9---9--9----8-----9---|-9/11-9-11-9--7--------------|-9-|
 A-7---7---9--9--------------|-9/11---11----7--------------|-7-|
 E---------------------------|-----------------------------|-7-|

I never worry now that is a lie
 
 e-----------------------|-11-11-11-11---9-----9---9---x-x-|
 B---10----9--9----9-----|-12-12-12-12---10----10--10--x-x-|
 G---11----9--9----9-----|-11-11-11-11---11----11--11--x-x-|
 D---11----9--9----9-----|---------------11----11--11--x-x-|
 A---9-----7--7----7-----|---------------9-----9---9---x-x-|
 E-----------------------|---------------------------------|

I don't ever want to feel like I did that day
 
 e------------------------|-11-11-11-11---9-----9---9---x-x-|
 B-x-x-10----9--9----9----|-12-12-12-12---10----10--10--x-x-|
 G-x-x-11----9--9----9----|-11-11-11-11---11----11--11--x-x-|
 D-x-x-11----9--9----9----|---------------11----11--11--x-x-|
 A-x-x-9-----7--7----7----|---------------9-----9---9---x-x-|
 E------------------------|---------------------------------|

Take me to the place I love take me all the way
 
 e------------------------|-11-11-11-11---9-----9---9---x-x-|
 B-x-x-10----9--9----9----|-12-12-12-12---10----10--10--x-x-|
 G-x-x-11----9--9----9----|-11-11-11-11---11----11--11--x-x-|
 D-x-x-11----9--9----9----|---------------11----11--11--x-x-|
 A-x-x-9-----7--7----7----|---------------9-----9---9---x-x-|
 E------------------------|---------------------------------|

I don't ever want to feel like I did that day
 
 e------------------------|-11-11-11-11---9-----9---9---x-x-|
 B-x-x-10----9--9----9----|-12-12-12-12---10----10--10--x-x-|
 G-x-x-11----9--9----9----|-11-11-11-11---11----11--11--x-x-|
 D-x-x-11----9--9----9----|---------------11----11--11--x-x-|
 A-x-x-9-----7--7----7----|---------------9-----9---9---x-x-|
 E------------------------|---------------------------------|

Take me to the place I love take me all the way
 
 e-----------------------------|-----------------------5h7p5--|
 B-9---9-x-x-7---7----7h9p7----|------9----9--4----5--------5-|
 G-9---9-x-x-8---8-----------8-|------9----9--4----6--------6-|
 D-9---9-x-x-9-------------9---|-9/11-9-11-9--6----7----------|
 A-7---7-x-x-9------9----------|-9/11---11----6----7----------|
 E-----------------------------|------------------------------|

YEAH YEAH YEAH
 
 e-----------------------------|-------------------5---------|
 B-9---9-x-x-7---7-------------|------9----9--5-------5------|
 G-9---9-x-x-8---8----8h9p8--8-|------9----9--6----------6---|
 D-9---9-x-x-9-------------9---|-9/11-9-11-9--7--------------|
 A-7---7-x-x-9------9----------|-9/11---11----7--------------|
 E-----------------------------|-----------------------------|
 e----------------------------|----------------------5h7p5--|
 B-9---9---7-----7------------|------9----9--4----5-------5-|
 G-9---9---8-----8---8h9p8--8-|------9----9--4----6---------|
 D-9---9---9--9----8------9---|-9/11-9-11-9--6----7---------|
 A-7---7---9--9---------------|-9/11---11----6----7---------|
 E----------------------------|-----------------------------|

It's hard to believe that there's nobody out there it's
 
 e---------------------7h9p7-7|----------------------5------|
 B-9---9---7-----7---7--------|------9----9--4----5-----5---|
 G-9---9---8-----8--8-8-------|------9----9--4----6-------6-|
 D-9---9---9--9---------------|-9/11-9-11-9--6----7---------|
 A-7---7---9--9---------------|-9/11---11----6----7---------|
 E----------------------------|-----------------------------|

hard to believe that I'm all alone
 
 e----------------------------|----------------------5h7p5--|
 B-9---9---7-----7------------|------9----9--4----5-------5-|
 G-9---9---8-----8---8h9p8--8-|------9----9--4----6---------|
 D-9---9---9--9----8------9---|-9/11-9-11-9--6----7---------|
 A-7---7---9--9---------------|-9/11---11----6----7---------|
 E----------------------------|-----------------------------|

At least I have her love the city she loves me
 
 e---------------------------|-------------------5---------|-7-|
 B-9---9---7-----7-----------|------9----9--5-------5------|-9-|
 G-9---9---8-----8--8h9p8--8-|------9----9--6----------6---|-8-|
 D-9---9---9--9----8-----9---|-9/11-9-11-9--7--------------|-9-|
 A-7---7---9--9--------------|-9/11---11----7--------------|-7-|
 E---------------------------|-----------------------------|-7-|

Lonely as I am Together we cry
=20
 
 e-----------------------|-11-11-11-11---9-----9---9---x-x-|
 B---10----9--9----9-----|-12-12-12-12---10----10--10--x-x-|
 G---11----9--9----9-----|-11-11-11-11---11----11--11--x-x-|
 D---11----9--9----9-----|---------------11----11--11--x-x-|
 A---9-----7--7----7-----|---------------9-----9---9---x-x-|
 E-----------------------|---------------------------------|

I don't ever want to feel like I did that day =20
 
 e------------------------|-11-11-11-11---9-----9---9---x-x-|
 B-x-x-10----9--9----9----|-12-12-12-12---10----10--10--x-x-|
 G-x-x-11----9--9----9----|-11-11-11-11---11----11--11--x-x-|
 D-x-x-11----9--9----9----|---------------11----11--11--x-x-|
 A-x-x-9-----7--7----7----|---------------9-----9---9---x-x-|
 E------------------------|---------------------------------|

Take me to the place I love take me all the way =20
 
 e------------------------|-11-11-11-11---9-----9---9---x-x-|
 B-x-x-10----9--9----9----|-12-12-12-12---10----10--10--x-x-|
 G-x-x-11----9--9----9----|-11-11-11-11---11----11--11--x-x-|
 D-x-x-11----9--9----9----|---------------11----11--11--x-x-|
 A-x-x-9-----7--7----7----|---------------9-----9---9---x-x-|
 E------------------------|---------------------------------|

I don't ever want to feel like I did that day =20
 
 e------------------------|-11-11-11-11---9-----------|
 B-x-x-10----9--9----9----|-12-12-12-12---10----------|
 G-x-x-11----9--9----9----|-11-11-11-11---11----------|
 D-x-x-11----9--9----9----|---------------11----------|
 A-x-x-9-----7--7----7----|---------------9-----------|
 E------------------------|---------------------------|

Take me to the place I love take me all the way =20
PART H
 
 e-0------0----5-5------|-0---0---0---0---0--0---|
 B-5------5----5-5------|-3---3---1---1---1--1---|
 G-6------5----5-5------|-4---4---2---2---2--2---|
 D-7------7----7-7------|-5---5---3---3---3--3---|
 A----------------------|------------------------|
 E----------------------|------------------------|

Play until final yeah yeah!
 
 E-12-12-12-12-12-12-12-12-12-12-12-12-12-12-12-12-|
 B-10-10-10-10-10-10-10-10-10-10-10-10-10-10-10-10-|
 G-10-10-10-10-10-10-10-10-10-10-10-10-10-10-10-10-|
 D-10-10-10-10-10-10-10-10-10-10-10-10-10-10-10-10-|
 A-------------------------------------------------|
 E-------------------------------------------------|

One time
 
 E-10-10-10-10-10-10-10-10-14-14-14-14-14-14-14-14-14-|
 B-9--9--9--9--9--9--9--9--12-12-12-12-12-12-12-12-12-|
 G-9--9--9--9--9--9--9--9--12-12-12-12-12-12-12-12-12-|
 D-9--9--9--9--9--9--9--9-----------------------------|
 A----------------------------------------------------|
 E----------------------------------------------------|

=20
Then play the H part again until outro!!!!
Outro
 
 e-0---0-0--0----0--0--x-x-|-0---0-x-x-0--------0------|
 B-5---5-1--1----1--1--x-x-|-3---3-x-x-1---0h1-----1---|
 G-6---6-2--2----2--2--x-x-|-4---4-x-x-2---------------|
 D-7---7-------------------|-5---5-x-x-3---------------|
 A-------------------------|---------------------------|
 E-------------------------|---------------------------|
 e-0---0-x--0---0-0-0-3p0--0---|-0---0-0-0-0---0-0-0-0------|
 B-5---5-x--1---1-1-1-1----1---|-3---3-3-3-0---1-1-1-1h3p1--|
 G-6---6-x--2------------------|-4---4-4-4-2---2-2-2------2-|
 D-7---7-x---------------------|-5---5-5-5-3----------------|
 A-----------------------------|----------------------------|
 E-----------------------------|----------------------------|
 e-0---0---0---0--0--3p0-----|-0---0-0--0---0-0-0-0-----|
 B-5---5---1---1--1--1---1---|-3---3-3--0---1-1-1-1-----|
 G-6---6---2-----------------|-4---4-4--2---2-2-2-2-----|
 D-7---7---------------------|-5---5-5--3---------3-----|
 A---------------------------|--------------------------|
 E---------------------------|--------------------------|
 e-0---0---0---0------------|-0---0---0------------|-------------------||
 B-5---5---1---1---1h3p1----|-3---3---0----1-------|-2-----------------||
 G-6---6---2---2--------2---|-4---4---2------------|-2-----------------||
 D-7---7--------------------|-5---5---3------------|-2-----------------||
 A--------------------------|----------------------|-0-----------------||
 E--------------------------|----------------------|-------------------||

*************************
Naked In The Rain
*************************
Notation Legend
 
 ---------------

p - Pull-Off
b - Bend
B - Bend (grace note) (bend as fast as you can)
r - Release Bend
x - Fret-Hand Muting (percussive tone)
- Staccato Phrasing (showed above the notes)
>- Accent Notes
~ - Vibrato
= - Tremolo Picking
/ - Shift Slide Up
\ - Shift Slide Down
_
/ - Legato Slide Up (only first note picked)
_
\ - Legato Slide Down (only first note picked)
_
s - Legato Slide (grace note) (slide as fast as you can)
Fermata - continue the chord without accurate counting
f - Forte (loud)
Timing
 
 ------

w - whole note
q - 1/4 note
q. - doted 1/4 note
e - 1/8 note
e. - doted 1/8 note
s - 1/16 note
e+h - doted 1/8 note + 1/2 note
W - whole break
H. - doted 1/2 break
E - 1/8 break
S - 1/16 break
 
 -----------------------------------------------------------------------------------------------

Time Signature: 4/4
Intro
[-----]Moderate Funk Rock q = 116
(drums & bass)
W[3]
 
 e|------------------|
 B|------------------|
 G|------------------|
 D|------------------|
 A|------------------|
 E|------------------|

Gtr. 1 (dist.)
[F]  
Rhy. Fig. 1
End Rhy. Fig. 1
[Gm9] [Dbm] 
[Dm] > > > >
. . .
H. q e e e s s S s s s S s s s e e e s s s s E
s_s e
 
 e|---------------------||-------------5-------5---5-----|----------------9--

Important: The song above is NOT stored on the Chordie server. The original song is hosted at www.guitartabs.cc. Chordie works as a search engine and provides on-the-fly formatting. Chordie does not index songs against artists'/composers' will. To remove this song please click here.

Text color:
Chord color:
Chord grids: 
Font size:    
Page size: 

A Am Am/B Bb7 C C7 D5 D7#9 Dbm Dm Dsus4 E E5 Ebmaj9 F F9 G G9 Gb9 Gm9
Rate #1 of 2 versions

Login - add to songbook

SHARE PAGE  



You need to log in to post comments