Guitar Tabs, Chords and Lyrics
Server problems seems to be fixed. Chordie has been experiencing problems with songs disappearing. These issues now seems to be fixed, but still verifying the fix. If you find anything strange, please email admin@chordie.com.


Dani California  Red Hot Chili Peppers

Song: Dani California
Artist: Red Hot Chili Peppers
Album: Stadium Arcadium
Tabbed By: Marcos Prieto (marcrow_ps@yahoo.es)
Notation legend:
x -> mute.
\ -> slide up. \ It can be after or before the note, like 1h3,
/ -> slide down. | but if there's no enought space it can be
h -> hammer on. | over or down, like G|-13-...
p -> pull off. / D|--h-...
~ -> let ring.
+ + -> the rhythm of the song, generally 4x4. If there are 2 digits notes
or there's no enough space, I lengthen it,
from (+ + ...) to (+ + ...)
 
 |·------·| -> repeat this a number of times, for example |·3-3-3-3·| x4

repeats 3-3-3-3 four times.
Enjoy playing this tab, it's so funny.
Intro:
[Am] [G] [Dm] [Am] [Am] [G] [Dm] [Am] 
[+] [+] [+] [+] [+] [+] [+] [+] [+] [+] [+] [+] [+] [+] [+] [+]  
 
 G|----------------|----7-----------|----------------|----7-----------|
 D|----7-------5-3-|------x/7-5-----|----7-------5-3-|---------h-h-h--|
 A|----------------|5-5---------7-5-|----------------|5-5----0030507--|
 E|5-5----53-3-----|----------------|5-5----53-3-----|---------------8|

Verse 1:
[Am] [G] [Dm] [Am] [Am] [G] [Dm] [Am] 
[+] [+] [+] [+] [+] [+] [+] [+] [+] [+] [+] [+] [+] [+] [+] [+]  
 
 G|----------------|----7-----------|----------------|----7-----------|
 D|----7-------5-3-|------x/7-5-----|----7-------5-3-|----------5-----|
 A|----------------|5-5---------7-5-|----------------|5-5----/7---75--|
 E|5-5----53-3-----|----------------|5-5----53-3-----|--------------8-|

[Am] [G] [Dm] [Am] [Am] [G] [Dm] [Am] 
[+] [+] [+] [+] [+] [+] [+] [+] [+] [+] [+] [+] [+] [+] [+] [+]  
 
 G|----------------|----7-----5-----|----------------|----7-----------|
 D|----7-------5-3-|------x/7-----5-|----7-------5-3-|-------/7-5-----|
 A|----------------|5-5---------57--|----------------|5-5---------7-5-|
 E|5-5----53-3-----|----------------|5-5----53-3-----|----------------|

[Am] [G] [Dm] [Am] [Am] [G] [Dm] [Am] 
[+] [+] [+] [+] [+] [+] [+] [+] [+] [+] [+] [+] [+] [+] [+] [+]  
 
 G|----------------|----7-----------|----------------|----7-----------|
 D|----7-------5-3-|------x/7-5-----|----7-------5-3-|-------/7-5---5-|
 A|----------------|5-5---------7-5-|----------------|5-5---------57-7|
 E|5-5----53-3-----|----------------|5-5----53-3-----|----------------|

[Am] [G] [Dm] [Am] [Am] [G] [Dm] 
[+] [+] [+] [+] [+] [+] [+] [+] [+] [+] [+] [+] [+] [+] [+] [+] [+] [+] [+] [+]  
 
 G|----------------|----7-----------|----------------|----------------|----------------|
 D|----7-------5-3-|------x/7-5-----|----7-------5-x3|----------------|----------------|
 A|----------------|5-5---------7-5-|----------------|5---5--5555-5--5|555-5--55~------|
 E|5-5-----3-3-----|----------------|5-5-----3-3-----|----------------|----------------|

Chorus 1:
[F] [C] [Dm] [G]  
[+] [+] [+] [+] [+] [+] [+] [+]  
 
 G|----------------|----------------|
 D|----------------|----------------|
 A|---------03---30|3/555-----------|
 E|1-1-1-----------|----------53----| x3

[F] [C] [Dm]  
[+] [+] [+] [+] [+] [+] [+] [+] [+] [+] [+] [+]  
 
 G|----------------|----------------|----------------|
 D|----------------|----------------|----------------|
 A|---------03---30|3/555---5-55----|5-55----5-55----|
 E|1-1-1-----------|----------------|----------------|

Verse 2:
[Am] [G] [Dm] [Am] [Am] [G] [Dm] [Am] 
[+] [+] [+] [+] [+] [+] [+] [+] [+] [+] [+] [+] [+] [+] [+] [+]  
 
 G|----------------|----7-----------|----------------|----7-----------|
 D|----7-------553-|------x/7-5-----|----7-------553-|----------------|
 A|----------------|5-5---------7-5-|----------------|5-5-----0305075-|
 E|5-5-----3-3-----|----------------|5-5-----3-3-----|---------------8|

[Am] [G] [Dm] [Am] [Am] [G] [Dm] [Am] 
[+] [+] [+] [+] [+] [+] [+] [+] [+] [+] [+] [+] [+] [+] [+] [+]  
 
 G|----------------|----7-----------|----------------|----7-----------|
 D|----7-------5-3-|------x/7-5-----|----7-------5-3-|----------5-----|
 A|----------------|5-5---------7-5-|----------------|5-5---5/7---5---|
 E|5-5----53-3-----|----------------|5-5----53-3-----|--------------8-|

[Am] [G] [Dm] [Am] [Am] [G] [Dm] 
[+] [+] [+] [+] [+] [+] [+] [+] [+] [+] [+] [+] [+] [+] [+] [+] [+] [+] [+] [+]  
 
 G|----------------|----7-----------|----------------|----------------|----------------|
 D|----7-------5-3-|------x/7-5-----|----7-------5-53|----------------|----------------|
 A|----------------|5-5---------7-5-|----------------|5---5--5555-5--5|555-5--55~------|
 E|5-5----53-3-----|----------------|5-5-----3-3-----|----------------|----------------|

Chorus 2:
[F] [C] [Dm] [G]  
[+] [+] [+] [+] [+] [+] [+] [+]  
 
 G|----------------|----------------|
 D|----------------|----------------|
 A|---------03---30|3/555-----------|
 E|1-1-1-----------|----------53----| x3

[F] [C] [Dm]  
[+] [+] [+] [+] [+] [+] [+] [+] [+] [+] [+] [+]  
 
 G|----------------|----------------|----------------|
 D|----------------|----------------|----------------|
 A|---------03---30|3/555---5-55----|5-55----5-555-5-|
 E|1-1-1-----------|----------------|----------------|

Bridge:
[Bm] [G] [F#m] [Bm] [G] [F#m] 
[+] [+] [+] [+] [+] [+] [+] [+] [+] [+] [+] [+] [+] [+] [+] [+]  
 
 G|----4---4-4-----|----------------|----4-4---4-----|----------------|
 D|-----4---4--424-|5-505--04-402---|-----4-4-4--424-|5-505--044402---|
 A|2-2----2--------|-------------4--|2-2-----2-------|-------------4--|
 E|----------------|----------------|----------------|----------------|

[Bm] [G] [F#m] [Bm] [Bm] 
[+] [+] [+] [+] [+] [+] [+] [+] [+] [+] [+] [+] [+] [+] [+] [+]  
 
 G|----4-4---4-----|----------------|----4-4---4-----|----------------|
 D|-----4-4-4--424-|5-505--04-402---|-----4-4-4------|------------2---|
 A|2-2-----2-------|-------------4--|2-2-----2-------|2-2-----2-5-----|
 E|----------------|----------------|----------------|--------------5-|

Verse 3:
[Am] [G] [Dm] [Am] [Am] [G] [Dm] [Am] 
[+] [+] [+] [+] [+] [+] [+] [+] [+] [+] [+] [+] [+] [+] [+] [+]  
 
 G|----------------|----7-----------|----------------|----7---5-7-5---|
 D|----7-------5-3-|-------/7-5-----|----7-------5-3-|------57-----757|
 A|----------------|5-5---------7-5-|----------------|5-5-------------|
 E|5-5----53-3-----|----------------|5-5----53-3-----|----------------|

[Am] [G] [Dm] [Am] [Am] [G] 
[+] [+] [+] [+] [+] [+] [+] [+] [+] [+] [+] [+]  
 
 G|----------------|----7-----------|----------------|
 D|----7-------5-3-|-------/7-5--5--|----7---------53|
 A|----------------|5-5---------7-5-|----------------|
 E|5-5----53-3-----|----------------|5-5----53-3-----|

[Dm] [Em] [Em] 
[+] [+] [+] [+] [+] [+] [+] [+] [+] [+] [+] [+] [+] [+] [+] [+]  
 
 G|----------------|----------------|9-9-9--99-9-9-9-|----------------|
 D|----------------|----------------|----------------|----------------|
 A|5---5--55-5-5--5|555-5--5555-5-x-|----------------|----------------|
 E|----------------|----------------|----------------|0-0-0-0-0-------|

Chorus 3:
[F] [C] [Dm] [G]  
[+] [+] [+] [+] [+] [+] [+] [+]  
 
 G|----------------|----------------|
 D|----------------|----------------|
 A|---------03---30|3/555-----------|
 E|1-1-1-----------|----------53----| x3

[F] [C] [Dm]  
[+] [+] [+] [+] [+] [+] [+] [+] [+] [+] [+] [+]  
 
 G|----------------|----------------|----------------|
 D|----------------|----------------|----------------|
 A|---------03---30|3/555---5-55----|5-55----5-55----|
 E|1-1-1-----------|----------------|----------------|

[F] [C] [Dm] [G]  
[+] [+] [+] [+] [+] [+] [+] [+]  
 
 G|----------------|----------------|
 D|----------------|----------------|
 A|---------03---30|3/555-----------|
 E|1-1-1-----------|----------53----| x3

[F] [C] [Dm]  
[+] [+] [+] [+] [+] [+] [+] [+] [+] [+] [+] [+]  
 
 G|----------------|----------------|----------------|
 D|----------------|----------------|---------7-5----|
 A|---------03---30|3/555---5-55----|5-55----5----75-|
 E|1-1-1-----------|----------------|---------------8|

Ending/Solo:
[F] [C] [Dm] [G] [F] [C] [Dm] [G] 
[+] [+] [+] [+] [+] [+] [+] [+] [+] [+] [+] [+] [+] [+] [+] [+]  
 
 G|----------------|----------------|----------------|----------------|
 D|----------------|----------------|----------------|----------------|
 A|---------03-3-3-|3/555-----------|---------03-3-3-|3/555585--------|
 E|1-1---1---------|--------3-3-3-3-|1-1---1---------|---------3333---|

[F] [C] [Dm] [G] [F] [C] [Dm] 
[+] [+] [+] [+] [+] [+] [+] [+] [+] [+] [+] [+] [+] [+] [+] [+] [+] [+] [+] [+]  
 
 G|----------------|----------------|----------------|----------------|-------575-75---|
 D|----------------|----------------|----------------|----------------|-----57---7--7--|
 A|---------03-3-3-|3/555-----------|---------03-3-3-|3/555---5-55----|5-55----------8-|
 E|1-1---1---------|--------3-3-3-3-|1-1---1---------|----------------|----------------|

[F] [C] [Dm] [G] [F] [C] [Dm] [G] 
[+] [+] [+] [+] [+] [+] [+] [+] [+] [+] [+] [+] [+] [+] [+] [+]  
 
 G|----------------|----------------|----------------|----------------|
 D|----------------|----------------|----------------|----------------|
 A|---------03-3-3-|3/555-55--------|---------03-3-3-|3/555555--------|
 E|1-1---x1--------|----------333---|1-1---x1--------|---------3333---|

T
[F] [C] [Dm] [G] [F] 
[+] [+] [+] [+] [+] [+] [+] [+] [+] [+] [+] [+] [+] [+] [+] [+]  
 
 G|----------------|----------------|----------------|----------------|
 D|----------------|--------7-5-----|----------------|----------------|
 A|---------03-3-3-|3/55-585----85--|----------------|----------0-1-2-|
 E|1-1-1-x1--------|--------------8-|1-1-1-1-1-1-1-1-|1-1-1-1-1-------|

[C] [Dm] 
[+] [+] [+] [+] [+] [+] [+] [+] [+] [+] [+] [+] [+] [+] [+] [+]  
 
 G|----------------|2--3--4--5--5---|----------------|----------------|
 D|----2--3--4--5--|----------------|----------------|----------------|
 A|3-3--3--3--3--3-|-3--3--3--------|5~--------------|----------------|
 E|----------------|----------------|----------------|----------------|

NOTE:
You can play the chorus like this
[A)] [B)] 
[+] [+] [+] [+] [+] [+] [+] [+]  
 
 G|----------------|----------------| G|----------------|----------------|
 D|---------*------|----------------| D|---------*------|----------------|
 A|---------03---30|3/555-----*-----| or A|---------x3---30|3/555-----*-----|
 E|1-1-1-----------|----------53----| E|1-1-1-----------|----------x3----|

^
|
\_ _ very quickly
__ _ __ __ _____ _____ _____
/ | / | / | / `\ / ___/ / __ / ( __/
/ |/ | / /|| / /) / // / / // \ \
/ /| /|| / /^|| / /|| //___ / / // ___) )
/ / | / || / / || / / || / / / ^^/ / /
^^^^^^^^^^^^^^^^^^^^^^^^^^^^^^^^^^^^^^^^^^^^^^^^^

Important: The song above is NOT stored on the Chordie server. The original song is hosted at www.guitartabs.cc. Chordie works as a search engine and provides on-the-fly formatting. Chordie does not index songs against artists'/composers' will. To remove this song please click here.

Text color:
Chord color:
Chord grids: 
Font size:    
Page size: 

Am Bm C Dm Em F F#m G
Rate #1 of 13 versions

Login - add to songbook

SHARE PAGE  




You need to log in to post comments