Guitar Tabs, Chords and Lyrics
Server problems seems to be fixed. Chordie has been experiencing problems with songs disappearing. These issues now seems to be fixed, but still verifying the fix. If you find anything strange, please email admin@chordie.com.


Emit Remmus   Red Hot Chili Peppers

 
 |----------------| Time signature

 


 C[+]an b[+]e sh[+]orte[+]ned to:


 

 
 |--------------------------------|

 


 [+] [-] [+] [-] [+] [-] [+] [-]  


 


 INTRO:


 


 

 
 G|--------------------------------|--------------------------------|
 D|------------6p5h6p5h6-----------|------------6p5h6p5h6-----------|
 A|6---8---8-----------------------|6---8---8-----------------------|
 E|--------------------------------|------------------------6-------| 4x
 + - + - + - + - + - + - + - + -

 


 


 


 VERSE: (Speeds up a bit)


 


 

 
 |--------------------------------|--------------------------------|
 |------------6p5h6p5h6-----------|------------6p5h6p5h6-----------|
 |6---8---8-----------------------|6---8---8-----------------------|
 |--------------------------------|------------------------6-------| 4x
 + - + - + - + - + - + - + - + -

 


 


 


 PRE-CHORUS:


 


 

 
 |--------------------------------|--------------------------------|
 |------------6p5h6p5h6---6---6---|------------6p5h6p5h6-----------|
 |6---8---8-----------------------|6---8---8-----------------------|
 |--------------------------------|------------------------6---6---| 4x
 + - + - + - + - + - + - + - + -

 


 


 


 CHORUS


 


 

 
 |----------------|----------------|
 |--------6-6-----|--------6-6-----|
 |6-8-8-8---------|6-8-8-8---------|
 |----------------|------------8-8-| 4x

 


 [+] [+] [+] [+] [+] [+] [+] [+]  


 


 VERSE:


 


 

 
 |--------------------------------|--------------------------------|
 |------------6p5h6p5h6-----------|------------6p5h6p5h6-----------|
 |6---8---8-----------------------|6---8---8-----------------------|
 |--------------------------------|------------------------6-------| 4x
 + - + - + - + - + - + - + - + -

 


 


 


 PRE-CHORUS:


 


 

 
 |--------------------------------|--------------------------------|
 |------------6p5h6p5h6---6---6---|------------6p5h6p5h6-----------|
 |6---8---8-----------------------|6---8---8-----------------------|
 |--------------------------------|------------------------6---6---| 4x
 + - + - + - + - + - + - + - + -

 


 


 


 CHORUS:


 


 

 
 |----------------|----------------|
 |--------6-6-----|--------6-6-----|
 |6-8-8-8---------|6-8-8-8---------|
 |----------------|------------8-8-| 4x

 


 [+] [+] [+] [+] [+] [+] [+] [+]  


 


 BRIDGE:


 


 

 
 |5---5-5---5-5-5-|----------------|----------------|----------------|
 |5---5-5---5-5-5-|6---6-6---6-6-6-|8---8-8---8-8-8-|3-3-3-3-3-3-3-3-|
 |3---3-3---3-3-3-|6---6-6---6-6-6-|8---8-8---8-8-8-|3-3-3-3-3-3-3-3-|
 |----------------|4---4-4---4-4-4-|6---6-6---6-6-6-|1-1-1-1-1-1-1-1-|

 


 [+] [+] [+] [+] [+] [+] [+] [+] [+] [+] [+] [+] [+] [+] [+] [+] 


 

 
 |5---------------|----------------|----------------|----------------|
 |5---------------|6---------------|8---8-8---8-8-8-|3-3-3-3-3-3-3-3-|
 |3---3-5-6-5-3---|6---6-5---3---3-|8---8-8---8-8-8-|3-3-3-3-3-3-3-3-|
 |----------------|4-----------4---|6---6-6---6-6-6-|1-1-1-1-1-1-1-1-|

 


 ([+] Tab[+] fro[+]m: h[+]ttp:/[+]/www[+].gui[+]tart[+]abs.c[+]c/ta[+]bs/r[+]/red[+]_hot_[+]chil[+]i_pe[+]pper[+]s/emit_remmus_btab_ver_3.html )


 

 
 |5---------------|----------------|----------------|
 |5-------3-------|6---------------|8---8-8---8-8-8-|
 |3---5-6---6-5-3-|6---6-5---3---3-|8---8-8---8-8-8-|
 |----------------|4-----------4---|6---6-6---6-6-6-|

 


 [+] [+] [+] [+] [+] [+] [+] [+] [+] [+] [+] [+] 


 

 
 |--------------------------------|
 |3-------3-----------------------|
 |3-------3-----------------------|
 |1-------1-/-13------13--13--13--|

 


 [+] [-] [+] [-] [+] [-] [+] [-]  


 

 
 |5---------------|----------------|----------------|----------------|
 |5---------------|6---6-6---6-6---|8---8-8---8-8-8-|3-3-3-3-3-3-3-3-|
 |3---3-5-6-5-3---|6---6-6---6-6---|8---8-8---8-8-8-|3-3-3-3-3-3-3-3-|
 |----------------|4---4-4---4-4-8-|6---6-6---6-6-6-|1-1-1-1-1-1-1-1-|

 


 [+] [+] [+] [+] [+] [+] [+] [+] [+] [+] [+] [+] [+] [+] [+] [+] 


 


 INTERLUDE:


 


 

 
 |--------------------------------|--------------------------------|
 |------------6p5h6p5h6-----------|------------6p5h6p5h6-----------|
 |6---8---8-----------------------|6---8---8-----------------------|
 |--------------------------------|------------------------6-------|

 


 [+] [+] [+] [+] [+] [+] [+] [+] [+] [+] [+] [+] [+] [+] [+] [+] 


 

 
 |--------------------------------|--------------------------------|
 |------------6p5h6p5h6-----------|------------6p5h6p5h6---8b------|
 |6---8---8-----------------------|6---8---8-----------------------|
 |--------------------------------|--------------------------------|

 


 [+] [+] [+] [+] [+] [+] [+] [+] [+] [+] [+] [+] [+] [+] [+] [+] 


 


 


 VERSE:


 


 

 
 |--------------------------------|--------------------------------|
 |------------6p5h6p5h6-----------|------------6p5h6p5h6-----------|
 |6---8---8-----------------------|6---8---8-----------------------|
 |--------------------------------|------------------------6-------| 4x
 + - + - + - + - + - + - + - + -

 


 


 


 PRE-CHORUS:


 


 

 
 |--------------------------------|--------------------------------|
 |------------6p5h6p5h6---6---6---|------------6p5h6p5h6-----------|
 |6---8---8-----------------------|6---8---8-----------------------|
 |--------------------------------|------------------------6---6---| 4x
 + - + - + - + - + - + - + - + -

 


 


 


 CHORUS:


 

 
 |----------------|----------------|
 |--------6-6-----|--------6-6-----|
 |6-8-8-8---------|6-8-8-8---------|
 |----------------|------------8-8-| 2x

 


 [+] [+] [+] [+] [+] [+] [+] [+]  


 

 
 |--------------------------------|
 |----------------6---6-----------|
 |0h6-8---8---8-------------------|
 |------------------------8---8---|

 


 [+] [-] [+] [-] [+] [-] [+] [-]  


 

 
 |----------------|----------------|
 |--------6-6-----|--------6-6-----|
 |6-8-8-8---------|6-8-8-8---------|
 |----------------|------------8-8-|

 


 [+] [+] [+] [+] [+] [+] [+] [+]  


 


 OUTTRO:


 


 

 
 |----------------|----------------|
 |--------6-6-----|--------6-6-----|
 |6-8-8-8---------|6-8-8-8---------|
 |----------------|------------8-8-| 3x

 


 [+] [+] [+] [+] [+] [+] [+] [+]  


 

 
 |----------------|----------------|
 |--------6-6-----|--------6-6\----|
 |6-8-8-8---------|6-8-8-8---------|
 |----------------|----------------|


Important: The song above is NOT stored on the Chordie server. The original song is hosted at www.guitartabs.cc. Chordie works as a search engine and provides on-the-fly formatting. Chordie does not index songs against artists'/composers' will. To remove this song please click here.

This song is displayed as text-only. Transposing and tuning is only available for chordpro-songs.
Rate #1 of 1 versions

Jango Player

Login - add to songbook

SHARE PAGE  



You need to log in to post comments