Guitar Tabs, Chords and Lyrics
Server problems seems to be fixed. Chordie has been experiencing problems with songs disappearing. These issues now seems to be fixed, but still verifying the fix. If you find anything strange, please email admin@chordie.com.


Falling Into Grace   Red Hot Chili Peppers

 
 |----------------| time signature

 


 C[+]an b[+]e le[+]ngth[+]ened to this


 

 
 |--------------------------------|

 


 +[+] maj[-]or b[+]eats[-] (1,[+]2,3,[-]4)[+] [-]


 - ands (1 & 2 & 3 & 4 &)


 


 This song is incredibly simple. Flea uses an auto-wah, and a chorus pedal to get the


 effect in this song. You could just use a wah-wah pedal though. The bass part is swung.


 


 Intro:


 


 

 
 |----|----------------|----------------|----------------|----------------|
 |----|----------------|----------------|----------------|----------------|
 |----|----0-2-3--2----|----0-2-3-------|----0-2-3--2----|----0-2---------|
 |---0|2020---------022|-020-----------0|2020---------022|-020----2-------|

 


 [+] [+] [+] [+] [+] [+] [+] [+] [+] [+] [+] [+] [+] [+] [+] [+] [+] 


 Verse 1:


 


 

 
 |----------------|----------------|----------------|----------------|
 |----------------|----------------|----------------|----------------|
 |----0-2-3--2----|----0-2-3-------|----0-2-3--2----|----0-2---------|
 |2020---------022|-020-----------0|2020---------022|-020----2------0| 2x

 


 [+] [+] [+] [+] [+] [+] [+] [+] [+] [+] [+] [+] [+] [+] [+] [+] 


 Pre-Chorus 1:


 


 

 
 |----------------|----------------|----------------|----------------|
 |----------------|----------------|----------------|----------------|
 |----0-2-3--2----|----0-2-3-------|----0-2-3--2----|----0-2---------|
 |2020---------022|-020-----------0|2020---------022|-020----2-------|

 


 [+] [+] [+] [+] [+] [+] [+] [+] [+] [+] [+] [+] [+] [+] [+] [+] 


 Chorus:


 


 

 
 |----------------|----------------|----------------|----------------|
 |5-------4-------|----------------|5-------4-------|----------------|
 |3-------2-------|----------------|3-------2-------|----------------|
 |----------------|0---------0--0--|----------------|0---------0--0--|

 


 [+] [+] [+] [+] [+] [+] [+] [+] [+] [+] [+] [+] [+] [+] [+] [+] 


 

 
 |----------------|----------------|----------------|----------------|
 |5-------4-------|----------------|5-------4-------|----------------|
 |3-------2-------|----------------|3-------2-------|5---4---3-------|
 |----------------|0---------0--0--|----------------|---------------0|

 


 [+] [+] [+] [+] [+] [+] [+] [+] [+] [+] [+] [+] [+] [+] [+] [+] 


 Pre-Verse 1:


 


 

 
 |----------------|----------5-----|----------------|----------------|
 |----------------|----------------|----------------|----------------|
 |----0-2-3--2----|----0-2-3-------|----0-2-3--2----|----0-2---------|
 |2020---------022|-020-----------0|2020---------022|-020----2------0|

 


 [+] [+] [+] [+] [+] [+] [+] [+] [+] [+] [+] [+] [+] [+] [+] [+] 


 Verse 2:


 


 

 
 |----------------|----------------|----------------|----------------|
 |----------------|----------------|----------------|----------------|
 |----0-2-3--2----|----0-2-3-------|----0-2-3--2----|----0-2----/9---|
 |2020---------022|-020-----------0|2020---------020|2020----2------0|

 


 [+] [+] [+] [+] [+] [+] [+] [+] [+] [+] [+] [+] [+] [+] [+] [+] 


 

 
 |----------------|----------------|----------------|----------------|
 |----------------|----------------|----------------|----------4-----|
 |----0-2-3--2----|----0-2-3-------|----0-2-3--2----|----0-2---------|
 |2020---------020|2020-----------0|2020---------020|2020----2------0|

 


 [+] [+] [+] [+] [+] [+] [+] [+] [+] [+] [+] [+] [+] [+] [+] [+] 


 Pre-Chorus 2:


 (nonsense fill see bottom)


 

 
 |----------------|----------------|----------------|----------------|
 |----------------|----------------|----------------|----------------|
 |----0-2-3--2----|----0-2-3-------|----0-2-3--2----|----0-2---------|
 |2020---------020|2020-----------0|2020---------020|2020----2------0|

 


 [+] [+] [+] [+] [+] [+] [+] [+] [+] [+] [+] [+] [+] [+] [+] [+] 


 Chorus:


 


 

 
 |----------------|----------------|----------------|------7---------|
 |5-------4-------|----------------|5-------4-------|----------------|
 |3-------2-------|----------------|3-------2-------|----------------|
 |----------------|0---------0--0--|----------------|0---------0--0--|

 


 [+] [+] [+] [+] [+] [+] [+] [+] [+] [+] [+] [+] [+] [+] [+] [+] 


 

 
 |----------------|----------------|----------------|----------------|
 |5-------4-------|----------------|5-------4-------|----------------|
 |3-------2-------|----------------|3-------2-------|5---4---3-------|
 |----------------|0---------0--0--|----------------|----------------|

 


 [+] [+] [+] [+] [+] [+] [+] [+] [+] [+] [+] [+] [+] [+] [+] [+] 


 Dave Navarro is actually playing notes instead of making random sounds! (Solo):


 


 

 
 |----------4-----|----------5-43--|----------4-----|------5--542----|
 |------4---------|------5-------54|------4---------|--5---------542-|
 |2------------2--|3---------------|2------------2--|3--------------5|
 |----------------|----------------|----------------|----------------|

 


 [+] [+] [+] [+] [+] [+] [+] [+] [+] [+] [+] [+] [+] [+] [+] [+] 


 

 
 |----------4-----|---------542----|----------4-----|----------------|
 |------4---------|------5-----542-|------4---------|----------------|
 |2------------2--|3--------------5|2------------2--|5---4---3-------|
 |----------------|----------------|----------------|----------------|

 


 [+] [+] [+] [+] [+] [+] [+] [+] [+] [+] [+] [+] [+] [+] [+] [+] 


 Bridge:


 


 

 
 |----------------|----------------|----------------|----------------|
 |----------------|----------------|----------------|----------------|
 |----0-2-3--2----|----0-2-3-------|----0-2-3--2----|----0-2---------|
 |2020---------022|-020-----------0|2020---------020|2020----2------0|

 


 [+] [+] [+] [+] [+] [+] [+] [+] [+] [+] [+] [+] [+] [+] [+] [+] 


 

 
 |----------------|----------------|----------------|-------------------|
 |----------------|----------------|----------------|-------------------|
 |----0-2-3--2----|----0-2-3-------|----0-2-3--2----|----0-2------------|
 |2020---------020|2020-----------0|2020---------020|2020----2-------0--|

 


 [+] [+] [+] [+] [+] [+] [+] [+] [+] [+] [+] [+] [+] [+] [+] [+] 


 Chorus


 


 

 
 |----------------|----------------|----------------|----------------|
 |5-------4-------|----------------|5-------4-------|----------------|
 |3-------2-------|----------------|3-------2-------|----------------|
 |----------------|0---------0--0--|----------------|0---------0--0--|

 


 [+] [+] [+] [+] [+] [+] [+] [+] [+] [+] [+] [+] [+] [+] [+] [+] 


 

 
 |----------------|----------------|----------------|----------------|
 |5-------4-------|----------------|5-------4-------|----------------|
 |3-------2-------|----------------|3-------2-------|5---4---3-------|
 |----------------|0---------0--0--|----------------|----------------|

 


 [+] [+] [+] [+] [+] [+] [+] [+] [+] [+] [+] [+] [+] [+] [+] [+] 


 

 
 |----------------|----------------|----------------|----------------|
 |5-------4-------|----------------|5-------4-------|----------------|
 |3-------2-------|----------------|3-------2-------|----------------|
 |----------------|0---------0--0--|----------------|0---------0--0--|

 


 [+] [+] [+] [+] [+] [+] [+] [+] [+] [+] [+] [+] [+] [+] [+] [+] 


 

 
 |----------------|----------9--9--|----------------|----------------|
 |5-------4-------|----------------|5-------4-------|----------------|
 |3-------2-------|----------------|3-------2-------|5---4---3-------|
 |----------------|0---------------|----------------|----------------|


Important: The song above is NOT stored on the Chordie server. The original song is hosted at www.guitartabs.cc. Chordie works as a search engine and provides on-the-fly formatting. Chordie does not index songs against artists'/composers' will. To remove this song please click here.

This song is displayed as text-only. Transposing and tuning is only available for chordpro-songs.
Rate #1 of 4 versions

Login - add to songbook

SHARE PAGE  




You need to log in to post comments