Guitar Tabs, Chords and Lyrics
Server problems seems to be fixed. Chordie has been experiencing problems with songs disappearing. These issues now seems to be fixed, but still verifying the fix. If you find anything strange, please email admin@chordie.com.


Snow ((Hey Oh))  Red Hot Chili Peppers

Song: Snow((Hey Oh))
Artist: Red Hot Chili Peppers
Tabbed By: ScHrOeDeR
Tuning: Standard EADGBe
CAPO 4th Fret
ok this is my version of snow hey oh with a capo on the 4th fret.Probably not the way
plays it but it makes the main riff a bit easier to play.
All notes and chords are relative to the capo.
Intro/Verses
[Em] [C] [G] [D]  
 
 e|-----------------------------------------------------------|
 B|-----------------------------------------------------------|
 G|----0-0h2p0-0------0-0h2p0-0------------------2-2h4p2-2----|
 D|---2-2-----2------2-2-----2-----0-0h2p0-0----4-4-----4-----|
 A|--2--------------3-------------2-2-----2----5--------------|
 E|------------------------------3----------------------------|

[Em] [C] [G] [D]  
 
 e|-----------------------------------------------------------|
 B|-----------------------------------------------------------|
 G|----0-0h2p0-0------0-0h2p0-0-------------------------------|
 D|---2-2-----2------2-2-----2-----0-0h2p0-0----0-0h2p0-0-----|
 A|--2--------------3-------------2-2-----2----2-2-----2------|
 E|------------------------------3------------2---------------|

Pre-Chorus
[C] [D] [Em] [D] [C]  
 
 e|--3--|--5--|--7--|--5--|--3--|
 B|--5--|--7--|--8--|--7--|--5--|
 G|--5--|--7--|--9--|--7--|--5--|
 D|--5--|--7--|--9--|--7--|--5--|
 A|--3--|--5--|--7--|--5--|--5--|
 E|-----|-----|-----|-----|--3--|

The more I see the less I know....
Chorus
[G] [D] [Em]  
 
 e|--3--|--5--|--7--|
 B|--3--|--7--|--8--|
 G|--4--|--7--|--9--|
 D|--5--|--7--|--9--|
 A|--5--|--5--|--7--|
 E|--3--|-----|-----|

Deep beneath the cover...
Outro Riff:
 
 e|-----------------------------------------------12--|
 B|-12----12----12---10----10----10---12----12--------|
 G|---12----12----12---11----11----11---12----12------|
 D|-----12----12---------12----12---------14----14----|
 A|---------------------------------------------------|
 E|---------------------------------------------------|

2nd Outro Riff:
 
 e|---------------------------12----------------|
 B|--3-----------7------------15b17-------------|
 G|--5b7---------9b11---------------------------|
 D|---------------------------------------------|
 A|---------------------------------------------|
 E|---------------------------------------------|
 e|---------------------------------------------|
 B|--3-----------7-------------5----------------|
 G|--5b7---------9b11----------7b9--------------|
 D|---------------------------------------------|
 A|---------------------------------------------|
 E|---------------------------------------------|

[-End-] 

Important: The song above is NOT stored on the Chordie server. The original song is hosted at www.guitartabs.cc. Chordie works as a search engine and provides on-the-fly formatting. Chordie does not index songs against artists'/composers' will. To remove this song please click here.

Text color:
Chord color:
Chord grids: 
Font size:    
Page size: 

C D Em G
Rate #1 of 12 versions

Login - add to songbook

SHARE PAGE  




You need to log in to post comments