Guitar Tabs, Chords and Lyrics
Server problems seems to be fixed. Chordie has been experiencing problems with songs disappearing. These issues now seems to be fixed, but still verifying the fix. If you find anything strange, please email admin@chordie.com.


Torture Me  Red Hot Chili Peppers

Song: Torture Me.
Artist: Red Hot Chili Peppers.
Album: Stadium Arcadium.
Notation legend:
\ | /
3 -> triplet, 3 notes in 2 beats.
x -> mute.
\ -> slide up. \ It can be after or before the note, like 1h3,
/ -> slide down. | but if there's no enought space it can be
h -> hammer on. | over or down, like G|-13-...
p -> pull off. / D|--h-...
~ -> let ring.
+ + -> the rhythm of the song, generally 4x4. If there are 2 digits notes
or there's no enough space, I lengthen it,
from (+ + ...) to (+ + ...)
 
 |·------·| -> repeat this a number of times, for example |·3-3-3-3·| x4

repeats 3-3-3-3 four times.
Intro:
[A#] [F#] 
[+] [+] [+] [+] [+] [+] [+] [+] [+] [+] [+] [+] [+] [+] [+] [+] [+] [+] [+] [+]  
 
 G|--------------------|--------------------|--------------------|--------------------|
 D|----3-3-----3-3--13-|----3-3-----3-3---13|4--4--4--4--4--4/6--|4--4--4--4--6-4-----|
 A|1-1-----1-1----1--h-|1-1-----1-1-----1--h|-----4-----4--------|-----4-----4----4---|
 E|--------------------|--------------------|--------------------|--------------------|

[A#] [F#] 
[+] [+] [+] [+] [+] [+] [+] [+] [+] [+] [+] [+] [+] [+] [+] [+] [+] [+] [+] [+]  
 
 G|--------------------|--------------------|--------------------|---------1----------|
 D|----3-3-----3-3--13-|----3-3-----3-3---13|4--4--4--4--4--4/6--|4--4--4-----4--34-3-|
 A|1-1-----1-1----1--h-|1-1-----1-1-----1--h|-----4-----4--------|-----4----------h---|
 E|--------------------|--------------------|--------------------|--------------------|

Verse 1 x6 (with V. End 1, 1, 1, 3, 1, 3):
______V. End 1_____
A# F# \
[+] [+] [+] [+] [+] [+] [+] [+] [+] [+] [+] [+] [+] [+] [+] [+] [+] [+] [+] [+]  
 
 G||--------------------|--------------------|--------------------|--------------------||
 D|·----3-3-----3-3--13-|----3-3-----3-3---13|4--4--44-4--4--4/6--|4--4--44-4--6-4-----·|
 A|·1-1-----111----1--h-|111-----111-----1--h|-----4-----4--------|-----4-----4----4---·|
 E||--------------------|--------------------|--------------------|--------------------||

______V. End 2_____ ______V. End 3_____ ______V. End 4_____
\ \ \
[+] [+] [+] [+] [+] [+] [+] [+] [+] [+] [+] [+] [+] [+] [+]  
 
 G|---------1----------| |---------1----------| |------------1--1----|
 D|4--4--4-----4--34-3-| |4--4--4-----4--3----| |4--4--4--4--------4-|
 A|-----4----------h---| |-----4------------4-| |-----4--------------|
 E|--------------------| |--------------------| |--------------------|

Chorus 1:
[A#] [C#] 
[+] [+] [+] [+] [+] [+] [+] [+] [+] [+]  
 
 G|----------------------------------------|--------10------13----------10------13--|
 D|--------15------------------15------15--|11--------------------------------------|
 A|13--------------------------------------|----------------------------------------|
 E|----------------------------------------|----------------------------------------|

[F#] [D#m] 
[+] [+] [+] [+] [+] [+] [+] [+] [+] [+]  
 
 G|11--------------11--------------11--10--|----------------------------------------|
 D|--------11------------------11----------|13--------------13--------------13--15--|
 A|----------------------------------------|--------13------------------13----------|
 E|----------------------------------------|----------------------------------------|

[A#] [C#] 
[+] [+] [+] [+] [+] [+] [+] [+] [+] [+]  
 
 G|----------------------------------------|--------10------13----------10------13--|
 D|--------15------------------15------15--|11------------------------------11------|
 A|13--------------13--------------13------|----------------------------------------|
 E|----------------------------------------|----------------------------------------|

[F#] [D#m] 
[+] [+] [+] [+] [+] [+] [+] [+] [+] [+]  
 
 G|11--------------11--------------11--10--|----------------------------------------|
 D|--------11------------------11----------|13--------------13--------------13------|
 A|----------------------------------------|--------13------------------------------|
 E|----------------------------------------|----------------------------------------|

Verse 2 x4 (with V. End 1, 2, 1, 3).
Chorus 2:
[A#] [C#] 
[+] [+] [+] [+] [+] [+] [+] [+] [+] [+]  
 
 G|----------------------------------------|--------10------13----------10------13--|
 D|--------15------------------15------15--|11------------------------------11------|
 A|13--------------13--------------13------|----------------------------------------|
 E|----------------------------------------|----------------------------------------|

[F#] [D#m] 
[+] [+] [+] [+] [+] [+] [+] [+] [+] [+]  
 
 G|11--------------11--------------11--10--|----------------------------------------|
 D|--------11------------------11----------|13--------------13--------------13--15--|
 A|----------------------------------------|--------13------------------13----------|
 E|----------------------------------------|----------------------------------------|

[A#] [C#] 
[+] [+] [+] [+] [+] [+] [+] [+] [+] [+]  
 
 G|----------------------------------------|--------10------13----------10------13--|
 D|--------15------------------15------15--|11------------------------------11------|
 A|13--------------13--------------13------|----------------------------------------|
 E|----------------------------------------|----------------------------------------|

[F#] [D#m] 
[+] [+] [+] [+] [+] [+] [+] [+] [+] [+]  
 
 G|11--------------11--------------11--10--|----------------------------------------|
 D|--------11------------------11----------|13--------------13----------------------|
 A|----------------------------------------|--------13------------------------------|
 E|----------------------------------------|----------------------------------------|

Bridge:
[C#] [D#m]  
[+] [+] [+] [+] [+] [+] [+] [+]  
 
 G|------10----------------1110----|------11--------1110------------|
 D|--------------------------------|----------------------11--------|
 A|----11--------------------------|--------------------------13\---|
 E|9----------------------9----9---|11------------------------------|

[C#]  
[+] [+] [+] [+]  
 
 G|------10--------------101110----|
 D|------------------------/-\-11--|
 A|----11--------------11----------|
 E|9-----------------9-------------|

[D#m]  
[+] [+] [+] [+]  
 
 G|------------11------------------111311--101110------------------|
 D|----------------------------------h-p-----h-p---111311----------|
 A|-------13-----------------------------------------h-p---13-\11--|
 E|11--------------------------------------------------------------|

[C#] [D#m]  
[+] [+] [+] [+] [+] [+] [+] [+]  
 
 G|------10----------------10------|------11--------1513--11--------|
 D|--------------------11----11----|-------------------------(13\)--|
 A|----11----------------11----11--|--------------------------------|
 E|9------------------9------------|11-----------(11----11--11)-----|

[C#] [D#m]  
[+] [+] [+] [+] [+] [+] [+] [+]  
 
 G|------10----------------1110----|------11------------15----13----|
 D|--------------------------------|--------------------------------|
 A|----11--------------------------|----------------/-/-----\-------|
 E|9----------------------9----9---|11------------111314--1413--13\-|

[C#] [D#m]  
[+] [+] [+] [+] [+] [+] [+] [+]  
 
 G|------10-------1110---11-10-----|------11~-----------------------|
 D|-------------11----11-------11--|----13--------------------------|
 A|----11--------------------------|--------------------------------|
 E|9-------------------------------|11------------------------------|

Verse 3 x4 (with V. End 1, 3, 3, 4).
Chorus 3:
[A#] [C#] 
[+] [+] [+] [+] [+] [+] [+] [+] [+] [+]  
 
 G||----------------------------------------|--------10------13----------10------13--|
 D|·--------15------------------15------15--|11------------------------------11------|
 A|·13--------------13--------------13------|----------------------------------------|
 E||----------------------------------------|----------------------------------------|

[F#] [D#m] 
[+] [+] [+] [+] [+] [+] [+] [+] [+] [+]  
 
 G|11--------------11--------------11--10--|----------------------------------------||
 D|--------11------------------11----------|13--------------13--------------13--15--·|
 A|----------------------------------------|--------13------------------13----------·|
 E|----------------------------------------|----------------------------------------|| x2

[A#] [C#] 
[+] [+] [+] [+] [+] [+] [+] [+] [+] [+]  
 
 G|----------------------------------------|--------10--10--13--13------10------13--|
 D|--------15------------------15------15--|11--11--------------------------11------|
 A|13--------------13--------------13------|----------------------------------------|
 E|----------------------------------------|----------------------------------------|

[F#] [D#m] 
[+] [+] [+] [+] [+] [+] [+] [+] [+] [+]  
 
 G|11--------------11--------------11--10--|----------------------------------------|
 D|--------11------------------11----------|13--------------13--------13----13--15--|
 A|----------------------------------------|--------13------------------13----------|
 E|----------------------------------------|----------------------------------------|

[A#] [C#] 
[+] [+] [+] [+] [+] [+] [+] [+] [+] [+]  
 
 G|----------------------------------------|--------10------13----------10------13--|
 D|--------15------------------15------15--|11------------------------------11------|
 A|13--------------13--------------13------|----------------------------------------|
 E|----------------------------------------|----------------------------------------|

[F#] [D#m] 
[+] [+] [+] [+] [+] [+] [+] [+] [+] [+]  
 
 G|11--------------11--------------11--10--|----------------------------------------|
 D|--------11------------------11----------|13--------------13--------------13------|
 A|----------------------------------------|--------13------------------------------|
 E|----------------------------------------|----------------------------------------|

[A#]  
[+] [+] [+] [+] [+] [+] [+] [+]  
 
 G|----------------|----------------|
 D|----------------|----------------|
 A|----------------|----------------|
 E|6~--------------|----------------|

__ _ __ __ _____ _____ _____
/ | / | / | / `\ / ___/ / __ / ( __/
/ |/ | / /|| / /) / // / / // \ \
/ /| /|| / /^|| / /|| //___ / / // ___) )
/ / | / || / / || / / || / / / ^^/ / /
^^^^^^^^^^^^^^^^^^^^^^^^^^^^^^^^^^^^^^^^^^^^^^^^^

Important: The song above is NOT stored on the Chordie server. The original song is hosted at www.guitartabs.cc. Chordie works as a search engine and provides on-the-fly formatting. Chordie does not index songs against artists'/composers' will. To remove this song please click here.

Text color:
Chord color:
Chord grids: 
Font size:    
Page size: 

A# C# D#m F#
Rate #1 of 3 versions

Jango Player

Login - add to songbook

SHARE PAGE  



You need to log in to post comments