Guitar Tabs, Chords and Lyrics
Server problems seems to be fixed. Chordie has been experiencing problems with songs disappearing. These issues now seems to be fixed, but still verifying the fix. If you find anything strange, please email admin@chordie.com.


Wet Sand  Red Hot Chili Peppers

I'm pretty sure this is 100% accurate, no-one tabbed the full song so mixed various
and altered them a little, in the solo live John bends 21 instead of playing 23.
Intro: (Figure out strumming pattern)
[G] [D] [Em] [Bm]  
 
 e|--------3------2-----------0-------------2-------------------|
 B|--------3------3-----------0-------------3-------------------|
 G|--------0------2-----------0-------------4-------------------|
 D|--------0------0--------2--2-------------4--------0----------|
 A|--------2-----------0h2----2-----b5--2---2------2---2-0------|
 E|--------3------------------0-------------2--------------3----|

My Shadow side, so amplified...
[G] [D] [Em] [Bm]  
 
 e|-----3------------------2-----------------0-------------2-----------=----|
 B|-----3------------------3-----------------0-------------3----------------|
 G|-----0------------------2-----------------0-------------4----------------|
 D|-----0-----0h2p0--------0-----0h2h0-------2-------------4----------------|
 A|-----2------------2p0---------------2p0---2-----b5--2---2--------0-2-4---|
 E|-3---3------------------------------------0-------------2------3---------|

My Love affair with everywhere...
[G] [D] [Em] [Bm]  
 
 e|-------3-----------------2------------------0------------------2---------|
 B|-------3-----------------3------------------0------------------3---------|
 G|-------0-----------------2------------------0------------------4---------|
 D|-------0-----------0-----0-----0-2-4-5--0---2------------------4---------|
 A|-------2-------0-2---0----------------------2-----5s2-2s0--2---2---------|
 E|---3---3-----3------------------------------0------------------2---------|

Verse:(Open Chords)
[G] Yo[D]ur the best I kn[Em]ow[Bm]
[G]My sunny side is up and died
[D]I'm betting there when we collide
[Em]The universe will shift into a [Bm]low
[G]the travesties that we have seen
[D]treating me like Benzedrine
[Em]automatic laughter from a [Bm]pro
Pre-Chorus: (Barre Chords)
[Em]My what a [G]good day for a,[D] walk ou[Em]tside
[Em]I'd like to get to [G]know you a little better babe God[D] knows that i really tried
[Em]My what a [G]good day for a [D]take out[Em] bride
[Em]I'd like to say we d[G]id it for the better[D] of
Verse: (Open Chords)
[G]I saw you there so unaware
[D]Those humming birds all in your hair
[Em]Elementry so, but it's [Bm]so
[G]The disrepair of Norma Jean
[D]could not compare to you're routine
[Em]Ballorama beauty going toe to [Bm]toe
Pre-Chorus: (Barre Chords)
[Em]My what a [G]good day just to [D]let it [Em]slide
[Em]I'd like to say we [G]did it for the better [D]of
Chorus: (Open Chords)
[E]I thought about it and I [C]brought it [E]out
[E]I'm motivated by the [C]lack of [E]doubt
[E]I'm concentrated but i'm [C]looking [E]out
[E]Mother, the father, the daughter
Intro: (throughout verse but w/Flange)
[G]Right on the verge is one more dose
[D]i'm travelling from coast to coast
[Em]my theory isn't perfect but it's [Bm]close
[G]i'm almost there, why should i care
[D]my heart is hurting when i care
[Em]Someone opened up, let it [Bm]show
Pre-Chorus:
[Em]My, what a [G]good day for a [D]walk [Em]outside
[Em]I like to think we [G]did it for the better [D]of
Chorus:
[E]I thought about it and I [C]brought it [E]out
[E]I'm motivated by the [C]lack of [E]doubt
[E]I'm concentrated but i'm [C]looking [E]out
[E]Mother, the father, the daughter
Bridge: (Open Chords)
[E]Yeah you don't [F#]form in the [G#m]wet sand
[E]You don't [F#]form at [G#m]all
[E]Woah you don't [F#]form in the [G#m]wet sand[F#], I [E]do, y[Eb]eah
[E]You don't [F#]form in the wet [G#m]sand
[E]You don't [F#]form at [G#m]all
[E]Woah you don't [F#]form in the [G#m]wet sand[F#], I [E]do, yeah!
Solo:
 
 e|-16--16--16--16--19-16-19-16--16p14-14h16--------------------------------|
 B|---------------------------------------------16--16--14h16p14--12h14-12--|
 G|-------------------------------------------------------------------------|
 D|-------------------------------------------------------------------------|
 A|-------------------------------------------------------------------------|
 E|-------------------------------------------------------------------------|
 e|------------11------18\--16~---23-23-23-23-23-23-19-21-21h23-21-19-21----|
 B|-12-11h12-------12-------------------------------------------------------|
 G|-------------------------------------------------------------------------|
 D|-------------------------------------------------------------------------|
 A|-------------------------------------------------------------------------|
 E|-------------------------------------------------------------------------|
 e|-21h23-19/21\19--19-18h19-/23-19--18h19-19--18h19p18-16-16--14-----------|
 B|---------------------------------------------------------------16--------|
 G|-------------------------------------------------------------------------|
 D|-------------------------------------------------------------------------|
 A|-------------------------------------------------------------------------|
 E|-------------------------------------------------------------------------|
 e|-14/18\14-14/16--14-16-14------------------------------------------------|
 B|---------------------------16~-------------------------------------------|
 G|-------------------------------------------------------------------------|
 D|-------------------------------------------------------------------------|
 A|-------------------------------------------------------------------------|
 E|-------------------------------------------------\0----------------------|

Enjoy! :)

Important: The song above is NOT stored on the Chordie server. The original song is hosted at www.guitartabs.cc. Chordie works as a search engine and provides on-the-fly formatting. Chordie does not index songs against artists'/composers' will. To remove this song please click here.

Text color:
Chord color:
Chord grids: 
Font size:    
Page size: 

Bm C D E Eb Em F# G G#m
Rate #1 of 7 versions

Jango Player

Login - add to songbook

SHARE PAGE  



You need to log in to post comments