Guitar Tabs, Chords and Lyrics
Update 25:10. 13:00. Site is back up running again. Songbooks are recovered. Woring on getting search back up..


Run  Reilly

Tabbed by Jacob Swanson (jacob.m.swanson@gmail.com)
This is a great song, but I haven't found tabs for it anywhere. This is my first
attempt at tablature, and I tried to be as detailed as possible. I was assisted by the chord
sheet published by the band (which you can find online here:
http://reillytheband.com/assets/files/Lyrics_Run%20by%20REILLY.pdf), but I changed what
is written on the original
sheet as a D# - D at the end of the chorus to a C#7 - D11/C, which sounds more
accurate, is easier to play, and makes a lot more musical sense. Enjoy!
Intro
[#1]7/8 G C
 
 e{|-------------------------------|----------------------------|
 b{|-------------------0-----------|----------0-----1---0-------|
 G{|-------0-----2---------2---0---|----0-------------------0---|
 D{|-----0---0-----0-----0---0---0-|--2---2-----2-----2---2---2-|
 A{|-------------------------------|3-------3-----3-------------|
 E{|---3-------3-----3-------------|----------------------------|

+ . + . + . . |+ . + . + . . |
[#3] G 9/8 C
 
 e |----------------------------|---------------------------------------|
 b |----------------0---3-------|-------1-----0-------------------------|
 G |----0-----2-------------0---|-------------------2-----2-----0-------|
 D |--0---0-----0-----0---0---0-|-----2---2-----2-----2-----2-----2---2-|
 A |----------------------------|---3-------3-----3-----3-----3-----3---|
 E |3-------3-----3-------------|---------------------------------------|

+ . + . + . . | + . + . + . + . . |
Verse 1
[#5]  
[4/4] [G] [G/B] [C]  
 
 e |-----------------------------------|--------------------------------|
 b |---------0-------0-------3-------3-|--------------------------------|
 G |-------0---0---0-------0---0---0---|----0---------0-----0---------0-|
 D |-----0-------0-------0-------0-----|--2---4-----4-----2---4-----4---|
 A |-------------------2---------------|3---------3-----3---------3-----|
 E |---3-------------------------------|--------------------------------|

+ . + . + . + . |+ . + . + . + . |
I - I've got a lot of faith in you
[#7] [G] [G/B] [C]  
 
 e |-----------------------------------|--------------------------------|
 b |---------0-------0-------3-------3-|--------------------------------|
 G |-------0---0---0-------0---0---0---|----0---------0-----0---------0-|
 D |-----0-------0-------0-------0-----|--2---4-----4-----2---4-----4---|
 A |-------------------2---------------|3---------3-----3---------3-----|
 E |---3-------------------------------|--------------------------------|

+ . + . + . + . |+ . + . + . + . |
I would never stray from you
[#9] [G] [G/B] [C]  
 
 e |-----------------------------------|--------------------------------|
 b |---------0-------0-------3-------3-|--------------------------------|
 G |-------0---0---0-------0---0---0---|----0---------0-----0---------0-|
 D |-----0-------0-------0-------0-----|--2---4-----4-----2---4-----4---|
 A |-------------------2---------------|3---------3-----3---------3-----|
 E |---3-------------------------------|--------------------------------|

+ . + . + . + . |+ . + . + . + . |
I've got all my hope in you 'cause it's
[#11] [G] [G/B] [C]  
 
 e |-----------------------------------|--------------------------------|
 b |---------0-------0-------3-------3-|--------------------------------|
 G |-------0---0---0-------0---0---0---|----0---------0-----0---------0-|
 D |-----0-------0-------0-------0-----|--2---4-----4-----2---4-----4---|
 A |-------------------2---------------|3---------3-----3---------3-----|
 E |---3-------------------------------|--------------------------------|

+ . + . + . + . |+ . + . + . + . |
bright, it's bright outside. But as
Chorus 1
[#13] [Em] [D/F#] [C]  
 
 e |-----------------------------------|--------------------------------|
 b |---------0-------0-------3-------3-|--------------------------------|
 G |-------0---0---0-------2---2---2---|----0---------0-----0---------0-|
 D |-----2-------2-------0-------0-----|--2---4-----4-----2---4-----4---|
 A |-----------------------------------|3---------3-----3---------3-----|
 E |---0---------------2---------------|--------------------------------|

+ . + . + . + . |+ . + . + . + . |
soon as the dark - ness comes And as

 
 e |-----------------------------------|---------0---------|
 b |---------0-------0-------3-------3-|-------0---0-------|
 G |-------0---0---0-------2---2---2---|-----0-------0-----|
 D |-----2-------2-------0-------0-----|-------------------|
 A |-----------------------------------|---4-----------4---|
 E |---0---------------2---------------|-------------------|

+ . + . + . + . | + . + . |
soon as the tear - drops fall --
[#17]  
[4/4] [D11/C]  
 
 e |-----------------------------------|
 b |---3*------------------------------|
 G |---0*------------------------------|
 D |---4*------------------------------|
 A |---3*------------------------------|
 E |-----------------------------------|

+ . + . + . + . |(+)
I run.
*let ring
Interlude 1

7/8 G C
 
 e |-------------------------------|----------------------------|
 b |-------------------0-----------|----------0-----1---0-------|
 G |-------0-----2---------2---0---|----0-------------------0---|
 D |-----0---0-----0-----0---0---0-|--2---2-----2-----2---2---2-|
 A |-------------------------------|3-------3-----3-------------|
 E |---3-------3-----3-------------|----------------------------|

+ . + . + . . |+ . + . + . .
(...run.)

G 9/8 C
 
 e |----------------------------|---------------------------------------|
 b |----------------0---3-------|-------1-----0-------------------------|
 G |----0-----2-------------0---|-------------------2-----2-----0-------|
 D |--0---0-----0-----0---0---0-|-----2---2-----2-----2-----2-----2---2-|
 A |----------------------------|---3-------3-----3-----3-----3-----3---|
 E |3-------3-----3-------------|---------------------------------------|

+ . + . + . . | + . + . + . + . . |
Verse 2
[#22]  
[4/4] [G] [G/B] [C]  
 
 e |-----------------------------------|--------------------------------|
 b |---------0-------0-------3-------3-|--------------------------------|
 G |-------0---0---0-------0---0---0---|----0---------0-----0---------0-|
 D |-----0-------0-------0-------0-----|--2---4-----4-----2---4-----4---|
 A |-------------------2---------------|3---------3-----3---------3-----|
 E |---3-------------------------------|--------------------------------|

+ . + . + . + . |+ . + . + . + . |
I - I've got a lot to learn from you My
[#24] [G] [G/B] [C]  
 
 e |-----------------------------------|--------------------------------|
 b |---------0-------0-------3-------3-|--------------------------------|
 G |-------0---0---0-------0---0---0---|----0---------0-----0---------0-|
 D |-----0-------0-------0-------0-----|--2---4-----4-----2---4-----4---|
 A |-------------------2---------------|3---------3-----3---------3-----|
 E |---3-------------------------------|--------------------------------|

+ . + . + . + . |+ . + . + . + . |
(My) heart - make it yearn for you
[#26] [G] [G/B] [C]  
 
 e |-----------------------------------|--------------------------------|
 b |---------0-------0-------3-------3-|--------------------------------|
 G |-------0---0---0-------0---0---0---|----0---------0-----0---------0-|
 D |-----0-------0-------0-------0-----|--2---4-----4-----2---4-----4---|
 A |-------------------2---------------|3---------3-----3---------3-----|
 E |---3-------------------------------|--------------------------------|

+ . + . + . + . |+ . + . + . + . |
I'll get all I need from you If only my

 
 e |-----------------------------------|--------------------------------|
 b |---------0-------0-------3-------3-|--------------------------------|
 G |-------0---0---0-------0---0---0---|----0---------0-----0---------0-|
 D |-----0-------0-------0-------0-----|--2---4-----4-----2---4-----4---|
 A |-------------------2---------------|3---------3-----3---------3-----|
 E |---3-------------------------------|--------------------------------|

+ . + . + . + . |+ . + . + . + . |
soul would live like this were true 'Cause as
Chorus 2

 
 e |-----------------------------------|--------------------------------|
 b |---------0-------0-------3-------3-|--------------------------------|
 G |-------0---0---0-------2---2---2---|----0---------0-----0---------0-|
 D |-----2-------2-------0-------0-----|--2---4-----4-----2---4-----4---|
 A |-----------------------------------|3---------3-----3---------3-----|
 E |---0---------------2---------------|--------------------------------|

+ . + . + . + . |+ . + . + . + . |
soon as the dark - ness comes And as

 
 e |-----------------------------------|---------0---------|
 b |---------0-------0-------3-------3-|-------0---0-------|
 G |-------0---0---0-------2---2---2---|-----0-------0-----|
 D |-----2-------2-------0-------0-----|-------------------|
 A |-----------------------------------|---4-----------4---|
 E |---0---------------2---------------|-------------------|

+ . + . + . + . | + . + . |
soon as the tear - drops fall --
[#34]  
[4/4] [D11/C]  
 
 e |-----------------------------------|
 b |---3*------------------------------|
 G |---0*------------------------------|
 D |---4*------------------------------|
 A |---3*------------------------------|
 E |-----------------------------------|

+ . + . + . + . |(+)
I run.
( Tab from: http://www.guitartabs.cc/tabs/r/reilly/run_tab.html )
Interlude 2
[#35]9/8 G C
 
 e|----3-----2-----5-----3------------|------------------------------------|
 b|----------------------------3------|----1-----0-------------------------|
 G|-----------------------------------|----------------2-----2-----0-----0-|
 D|--0---0-----0-----0-----0-----0---0|--2---2-----2-----2-----2-----2-----|
 A|-----------------------------------|3-------3-----3-----3-----3-----3---|
 E|3-------3-----3-----3-----3-----3--|------------------------------------|

+ . + . + . + . . |+ . + . + . + . . |
(...run.)
[#37]  
[G] [C]  
 
 e|----3-----2-----5-----3------------|------------------------------------|
 b|----------------------------3------|----1-----0-------------------------|
 G|-----------------------------------|----------------2-----2-----0-------|
 D|--0---0-----0-----0-----0-----0---0|--2---2-----2-----2-----2-----2---2-|
 A|-----------------------------------|3-------3-----3-----3-----3-----3---|
 E|3-------3-----3-----3-----3-----3--|------------------------------------|

+ . + . + . + . . |+ . + . + . + . . |
[#39]7/8 G C
 
 e |-------------------------------|----------------------------|
 b |-------------------0-----------|----------0-----1---0-------|
 G |-------0-----2---------2---0---|----0-------------------0---|
 D |-----0---0-----0-----0---0---0-|--2---2-----2-----2---2---2-|
 A |-------------------------------|3-------3-----3-------------|
 E |---3-------3-----3-------------|----------------------------|

+ . + . + . . |+ . + . + . .
[#41] G 9/8 C
 
 e |----------------------------|---------------------------------------|
 b |----------------0---3-------|-------1-----0-------------------------|
 G |----0-----2-------------0---|-------------------2-----2-----0-------|
 D |--0---0-----0-----0---0---0-|-----2---2-----2-----2-----2-----2---2-|
 A |----------------------------|---3-------3-----3-----3-----3-----3---|
 E |3-------3-----3-------------|---------------------------------------|

+ . + . + . . | + . + . + . + . . |
Verse 3
[#43]  
[4/4] [G] [G/B] [C]  
 
 e |-----------------------------------|--------------------------------|
 b |---------0-------0-------3-------3-|--------------------------------|
 G |-------0---0---0-------0---0---0---|----0---------0-----0---------0-|
 D |-----0-------0-------0-------0-----|--2---4-----4-----2---4-----4---|
 A |-------------------2---------------|3---------3-----3---------3-----|
 E |---3-------------------------------|--------------------------------|

+ . + . + . + . |+ . + . + . + . |
I - I wanna give my life to you, Sacri-
(Give my life to ...
[#45] [G] [G/B] [C]  
 
 e |-----------------------------------|--------------------------------|
 b |---------0-------0-------3-------3-|--------------------------------|
 G |-------0---0---0-------0---0---0---|----0---------0-----0---------0-|
 D |-----0-------0-------0-------0-----|--2---4-----4-----2---4-----4---|
 A |-------------------2---------------|3---------3-----3---------3-----|
 E |---3-------------------------------|--------------------------------|

+ . + . + . + . |+ . + . + . + . |
-fice all my will to you.
...you) (All my will to ...
[#47] [G] [G/B] [C]  
 
 e |-----------------------------------|--------------------------------|
 b |---------0-------0-------3-------3-|--------------------------------|
 G |-------0---0---0-------0---0---0---|----0---------0-----0---------0-|
 D |-----0-------0-------0-------0-----|--2---4-----4-----2---4-----4---|
 A |-------------------2---------------|3---------3-----3---------3-----|
 E |---3-------------------------------|--------------------------------|

+ . + . + . + . |+ . + . + . + . |
I wanna walk this walk with you. I know in my
...you) (Walk this walk with ...
[#49] [G] [G/B] [C]  
 
 e |-----------------------------------|--------------------------------|
 b |---------0-------0-------3-------3-|--------------------------------|
 G |-------0---0---0-------0---0---0---|----0---------0-----0---------0-|
 D |-----0-------0-------0-------0-----|--2---4-----4-----2---4-----4---|
 A |-------------------2---------------|3---------3-----3---------3-----|
 E |---3-------------------------------|--------------------------------|

+ . + . + . + . |+ . + . + . + . |
soul I'll be better off when I do. So as
Chorus 3
[#51] [Em] [D/F#] [C]  
 
 e |-----------------------------------|--------------------------------|
 b |---------0-------0-------3-------3-|--------------------------------|
 G |-------0---0---0-------2---2---2---|----0---------0-----0---------0-|
 D |-----2-------2-------0-------0-----|--2---4-----4-----2---4-----4---|
 A |-----------------------------------|3---------3-----3---------3-----|
 E |---0---------------2---------------|--------------------------------|

+ . + . + . + . |+ . + . + . + . |
soon as the dark - ness comes And as

 
 e |-----------------------------------|---------0---------|
 b |---------0-------0-------3-------3-|-------0---0-------|
 G |-------0---0---0-------2---2---2---|-----0-------0-----|
 D |-----2-------2-------0-------0-----|-------------------|
 A |-----------------------------------|---4-----------4---|
 E |---0---------------2---------------|-------------------|

+ . + . + . + . | + . + . |
soon as the tear - drops fall --
[#55]  
[4/4] [D11/C]  
 
 e |-----------------------------------|
 b |---3*------------------------------|
 G |---0*------------------------------|
 D |---4*------------------------------|
 A |---3*------------------------------|
 E |-----------------------------------|

+ . + . + . + . |
I'll
Bridge
[#56] [G] [G/B] [C]  
 
 e |-----------------------------------|----------------0---------------|
 b |---------0-------0-------3-------3-|------3-----------3-----------3-|
 G |-------0-------0-------0-------0---|----0-------0-------0-------0---|
 D |-----0-------0-------0-------0-----|--2-------2-----------2---2-----|
 A |-------------------2---------------|3-----------------------3-------|
 E |---3-------------------------------|--------------------------------|

+ . + . + . + . |+ . + . + . + . |
run to you, I'll run to you, I'll run to you, my God, my King. I'll

 
 e |-----------------------------------|----------------0---------------|
 b |---------0-------0-------3-------3-|------3-------3---3-----------3-|
 G |-------0---0---0-------0---0---0---|----0-------0-------0-------0---|
 D |-----0-------0-------0-------0-----|--2-------2-----------2---2-----|
 A |-------------------2---------------|3-----------------------3-------|
 E |---3-------------------------------|--------------------------------|

+ . + . + . + . |+ . + . + . + . |
run to you, I'll run to you, I'll run to you, my Sa - vior. I'll

 
 e |-----------------------------------|--------------------------------|
 b |---------0-------0-------3-------3-|------3-------3-------3-------3-|
 G |-------0---0---0-------0---0---0---|----0-------0-------0-------0---|
 D |-----0-------0-------0-------0-----|--2-------2-------2-------2-----|
 A |-------------------2---------------|3---------------3---------------|
 E |---3-------------------------------|--------------------------------|

+ . + . + . + . |+ . + . + . + . |
run to you, I'll run to you, and I'll never stop until I get to you. I'll
[#62] [G] [G/B] [C]  
 
 e |-----------------------------------|----------------------0---------|
 b |---------0-------0-------3-------3-|------3-------3---------3-------|
 G |-------0---0---0-------0---0---0---|----0---0---0---0---------0---0-|
 D |-----0-------0-------0-------0-----|--2-------2-------2---------2---|
 A |-------------------2---------------|3-------------------3-----------|
 E |---3-------------------------------|--------------------------------|

+ . + . + . + . |+ . + . + . + . |
run to you, I'll run to you, I'll run._______________________ As
Chorus 4
[#64] [Em] [D/F#] [C]  
 
 e |-----------------------------------|--------------------------------|
 b |---------0-------0-------3-------3-|--------------------------------|
 G |-------0---0---0-------2---2---2---|----0---------0-----0---------0-|
 D |-----2-------2-------0-------0-----|--2---4-----4-----2---4-----4---|
 A |-----------------------------------|3---------3-----3---------3-----|
 E |---0---------------2---------------|--------------------------------|

+ . + . + . + . |+ . + . + . + . |
soon as the dark - ness comes And as

 
 e |-----------------------------------|---------0---------|
 b |---------0-------0-------3-------3-|-------0---0-------|
 G |-------0---0---0-------2---2---2---|-----0-------0-----|
 D |-----2-------2-------0-------0-----|-------------------|
 A |-----------------------------------|---4-----------4---|
 E |---0---------------2---------------|-------------------|

+ . + . + . + . | + . + . |
soon as the tear - drops fall --

[4/4] [D11/C]  
 
 e |-----------------------------------|
 b |---3*------------------------------|
 G |---0*------------------------------|
 D |---4*------------------------------|
 A |---3*------------------------------|
 E |-----------------------------------|

+ . + . + . + . |(+)
I'll run.
Ending
[#69]7/8 G C
 
 e |-------------------------------|----------------------------|
 b |-------------------0-----------|----------0-----1---0-------|
 G |-------0-----2---------2---0---|----0-------------------0---|
 D |-----0---0-----0-----0---0---0-|--2---2-----2-----2---2---2-|
 A |-------------------------------|3-------3-----3-------------|
 E |---3-------3-----3-------------|----------------------------|

+ . + . + . . |+ . + . + . .
(...run.)
[#71] G 9/8 C
 
 e |----------------------------|---------------------------------------|
 b |----------------0---3-------|-------1-----0-------------------------|
 G |----0-----2-------------0---|-------------------2-----2-----0-------|
 D |--0---0-----0-----0---0---0-|-----2---2-----2-----2-----2-----2---2-|
 A |----------------------------|---3-------3-----3-----3-----3-----3---|
 E |3-------3-----3-------------|---------------------------------------|

+ . + . + . . | + . + . + . + . . |
rit.----
[#73]  
[2/4] [G]  
 
 e |-------------------|}
 b |-------0*----------|}
 G |-------0*----------|}
 D |-----0*------------|}
 A |-------------------|}
 E |---3*--------------|}

+ . + . |}
(rit.)----

Important: The song above is NOT stored on the Chordie server. The original song is hosted at www.guitartabs.cc. Chordie works as a search engine and provides on-the-fly formatting. Chordie does not index songs against artists'/composers' will. To remove this song please click here.

Text color:
Chord color:
Chord grids: 
Font size:    
Page size: 

C D/F# Em G G/B
Rate #1 of 2 versions

Jango Player

Login - add to songbook

SHARE PAGE  




You need to log in to post comments