Guitar Tabs, Chords and Lyrics
Server problems seems to be fixed. Chordie has been experiencing problems with songs disappearing. These issues now seems to be fixed, but still verifying the fix. If you find anything strange, please email admin@chordie.com.


12 Days of Christmas  Relient K

First Day of Christmas
Q=176
[B5]  
[4/4] Gtr II
[E] [E] [E] [E] [E] [E] [E] [E] [E] [E] [E] [E] [E] [E] [E] [E] [E] [E] [E] [E] [E] [E] [E] [E] [E] [E] [E] [E] [E] [E] [E] [E]  
 
 |-----------------|-----------------|-----------------|------------------|
 |-----------------|-----------------|-----------------|------------------|
 |-4-4-4-4-4-4-4-4-|-4-4-4-4-4-4-4-4-|-4-4-4-4---4-4-4-|-4-4-4-4-4-4-4-4--|
 |-----------------|-----------------|-----------------|------------------|
 |-2-2-2-2-2-2-2-2-|-2-2-2-2-2-2-2-2-|-2-2-2-2---2-2-2-|-2-2-2-2-2-2-2-2--|
 |-----------------|-----------------|-----------------|------------------|

Second Day of Christmas
[B5]Gtr I[F#5]
W W W
 
 |-----------------|-----------------|------|
 |-----------------|-----------------|------|
 |-----------------|-----------------|------|
 |-----------------|-----------------|-4----|
 |-----------------|-----------------|-4----|
 |-----------------|-----------------|-2----|

|
| Gtr II Gtr II
| E E E E E E E E E E E E E E E E W
 
 |-----------------|-----------------|------|
 |-----------------|-----------------|------|
 |-4-4-4-4-4-4-4-4-|-4-4-4-4-4-4-4-4-|-3----|
 |-----------------|-----------------|------|
 |-2-2-2-2-2-2-2-2-|-2-2-2-2-2-2-2-2-|-1----|
 |-----------------|-----------------|------|

Third Day of Christmas
[E5] [F#5] [B5]  
 
 PM---------------------------|

Q Q E E Q E E E E E E E E Q E E E E E E E E E E E E E E
 
 |---------------|-----------------|-----------------|-----------------|
 |---------------|-----------------|-----------------|-----------------|
 |---------------|-4-4-4-4-4-4-4-4-|-4--4--4-4-4-4-4-|-4-4-4-4-4-4-4-4-|
 |-2---4--x-x-4--|-4-4-4-4-4-4-4-4-|-4--4--4-4-4-4-4-|-4-4-4-4-4-4-4-4-|
 |-2---4--x-x-4--|-2-2-2-2-2-2-2-2-|-2--2--2-2-2-2-2-|-2-2-2-2-2-2-2-2-|
 |-0---2--x-x-2--|-----------------|-----------------|-----------------|

|
| Q Q Q Q E E E E E E E E Q H. W
 
 |---------------|-----------------|-----------------|-----------------|
 |---------------|-----------------|-----------------|-----------------|
 |-9--11---------|-4-4-4-4-4-4-4-4-|-4---------------|-----------------|
 |------------4--|-----------------|-----------------|-----------------|
 |-7---9---------|-2-2-2-2-2-2-2-2-|-2---------------|-----------------|
 |------------2--|-----------------|-----------------|-----------------|

[F#5] [E5] [F#5] [B5] 
[3/4] [4/4]  
 
 PM--------------------------|

E E E E E E E E E E E E E E Q Q E E Q E E E E E E E E
 
 |-------------|-----------------|---------------|-----------------|
 |-------------|-----------------|---------------|-----------------|
 |-------------|-----------------|---------------|-4-4-4-4-4-4-4-4-|
 |-4-4-4-4-4-4-|-4-4-4-4-4-4-4-4-|-2---4--x-x-4--|-4-4-4-4-4-4-4-4-|
 |-4-4-4-4-4-4-|-4-4-4-4-4-4-4-4-|-2---4--x-x-4--|-2-2-2-2-2-2-2-2-|
 |-2-2-2-2-2-2-|-2-2-2-2-2-2-2-2-|-0---2--x-x-2--|-----------------|

|
| W W Q Q Q Q E E E E E E E E
 
 |-------------|-----------------|---------------|-----------------|
 |-------------|-----------------|---------------|-----------------|
 |-------------|-----------------|-9--11---------|-4-4-4-4-4-4-4-4-|
 |-------------|-----------------|------------4--|-----------------|
 |-------------|-----------------|-7---9---------|-2-2-2-2-2-2-2-2-|
 |-------------|-----------------|------------2--|-----------------|

Fourth Day of Christmas
[B5] [F#5] 
[3/4] 
[E] [E] [E] [E] [E] [E] [E] [E] [E] [E] [E] [E] [E] [E] [E] [E] [E] [E] [E] [E] [E] [E] [E] [E] [E] [E] [E] [E]  
 
 |-----------------|-----------------|-------------|-------------|
 |-----------------|-----------------|-------------|-------------|
 |-4-4-4-4-4-4-4-4-|-4-4-4-4-4-4-4-4-|-------------|-------------|
 |-4-4-4-4-4-4-4-4-|-4-4-4-4-4-4-4-4-|-4-4-4-4-4-4-|-4-4-4-4-4-4-|
 |-2-2-2-2-2-2-2-2-|-2-2-2-2-2-2-2-2-|-4-4-4-4-4-4-|-4-4-4-4-4-4-|
 |-----------------|-----------------|-2-2-2-2-2-2-|-2-2-2-2-2-2-|

|
| E E E E E E E E E E E E E E E E E E E E E E E E E E E E
 
 |-----------------|-----------------|-------------|-------------|
 |-----------------|-----------------|-------------|-------------|
 |-4-4-4-4-4-4-4-4-|-4-4-4-4-4-4-4-4-|-------------|-------------|
 |-----------------|-----------------|-4-4-4-4-4-4-|-4-4-4-4-4-4-|
 |-2-2-2-2-2-2-2-2-|-2-2-2-2-2-2-2-2-|-------------|-------------|
 |-----------------|-----------------|-2-2-2-2-2-2-|-2-2-2-2-2-2-|

Fifth Day of Christmas
[E5] [F#5] [B5] 
[4/4]  
 
 PM---------|

E E E E E E E E Q Q E E Q E E E E E E E E Q E E E E E E
 
 |-----------------|---------------|-----------------|------------------|
 |-----------------|---------------|-----------------|------------------|
 |-----------------|---------------|-4-4-4-4-4-4-4-4-|-4--4--4-4-4-4-4--|
 |-4-4-4-4-4-4-4-4-|-2---4--x-x-4--|-4-4-4-4-4-4-4-4-|-4--4--4-4-4-4-4--|
 |-4-4-4-4-4-4-4-4-|-2---4--x-x-4--|-2-2-2-2-2-2-2-2-|-2--2--2-2-2-2-2--|
 |-2-2-2-2-2-2-2-2-|-0---2--x-x-2--|-----------------|------------------|

|
| E E E E E E E E Q Q Q Q E E E E E E E E Q H.
 
 |-----------------|---------------|-----------------|------------------|
 |-----------------|---------------|-----------------|------------------|
 |-----------------|-9--11---------|-4-4-4-4-4-4-4-4-|-4----------------|
 |-4-4-4-4-4-4-4-4-|------------4--|-----------------|------------------|
 |-----------------|-7---9---------|-2-2-2-2-2-2-2-2-|-2----------------|
 |-2-2-2-2-2-2-2-2-|------------2--|-----------------|------------------|

[C#/F] [F#5]  
 
 PM------------|

E E E E E E E E W W E E E E E E E E
 
 |-----------------|----------|-----------|-------------------------|
 |-----------------|----------|-----------|-------------------------|
 |-4-4-4-4-4-4-4-4-|-4--------|-----------|-------------------------|
 |-4-4-4-4-4-4-4-4-|-4--------|--3--------|--4--4--4--4--4--4--4--4-|
 |-2-2-2-2-2-2-2-2-|-2--------|--4--------|--4--4--4--4--4--4--4--4-|
 |-----------------|----------|--1--------|--2--2--2--2--2--2--2--2-|

|
| W W W E E E E E E E E
 
 |-----------------|----------|-----------|-------------------------|
 |-----------------|----------|-----------|-------------------------|
 |-----------------|-9--------|-10--------|-11-11-11-11-11-11-11-11-|
 |-----------------|----------|-----------|-------------------------|
 |-----------------|-7--------|--8--------|--9--9--9--9--9--9--9--9-|
 |-----------------|----------|-----------|-------------------------|

[B5] [E5] [C#/F] [F#5] 
[3/4] [4/4] 
[E] [E] [E] [E] [E] [E] [E] [E] [E] [E] [E] [E] [E] [E] [E] [E] [E] [E] [E] [E] [E] [E] [E] [E] [E] [E] [E] [E]  
 
 |-------------------------|-------------|-------------|-----------------|
 |-------------------------|-------------|-------------|-----------------|
 |-------------------------|-4-4-4-4-4-4-|-------------|-----------------|
 |--4--4--4--4--4--4--4--4-|-4-4-4-4-4-4-|-2-2-2-2-2-2-|-3-3-3-3-4-4-4-4-|
 |--4--4--4--4--4--4--4--4-|-2-2-2-2-2-2-|-2-2-2-2-2-2-|-4-4-4-4-4-4-4-4-|
 |--2--2--2--2--2--2--2--2-|-------------|-0-0-0-0-0-0-|-1-1-1-1-2-2-2-2-|

|
| E E E E E E E E E E E E E E E E E E E E E E E E E E E E
 
 |-------------------------|-------------|-------------|-----------------|
 |-------------------------|-------------|-------------|-----------------|
 |-11-11-11-11-11-11-11-11-|-4-4-4-4-4-4-|-4-4-4-4-4-4-|-----------------|
 |-------------------------|-------------|-------------|-3-3-3-3-4-4-4-4-|
 |--9--9--9--9--9--9--9--9-|-2-2-2-2-2-2-|-2-2-2-2-2-2-|-----------------|
 |-------------------------|-------------|-------------|-1-1-1-1-2-2-2-2-|

Bridge
[E5]Q [F#5] Q E E Q [B5]E E E E E E E E E E E E E E E E [E5]E E E E E E E E
 
 |----------------|-----------------|-----------------|-----------------|
 |----------------|-----------------|-----------------|-----------------|
 |----------------|-4-4-4-4-4-4-4-4-|-4-4-4-4-4-4-4-4-|-----------------|
 |-2---4--x-x--4--|-4-4-4-4-4-4-4-4-|-4-4-4-4-4-4-4-4-|-2-2-2-2-2-2-2-2-|
 |-2---4--x-x--4--|-2-2-2-2-2-2-2-2-|-2-2-2-2-2-2-2-2-|-2-2-2-2-2-2-2-2-|
 |-0---2--x-x--2--|-----------------|-----------------|-0-0-0-0-0-0-0-0-|

|
| Q Q Q Q E E E E E E E E E E E E E E E E E E E E E E E E
 
 |----------------|-----------------|-----------------|-----------------|
 |----------------|-----------------|-----------------|-----------------|
 |-9--11------11--|-8-8-8-8-8-8-8-8-|-4-4-4-4-4-4-4-4-|-4-4-4-4-4-4-4-4-|
 |----------------|-----------------|-----------------|-----------------|
 |-7---9-------9--|-6-6-6-6-6-6-6-6-|-2-2-2-2-2-2-2-2-|-2-2-2-2-2-2-2-2-|
 |----------------|-----------------|-----------------|-----------------|

[G#5] [F#5] [B5] [E5] 
[E] [E] [E] [E] [E] [E] [E] [E] [E] [E] [E] [E] [E] [E] [E] [E] [E] [E] [E] [E] [E] [E] [E] [E] [E] [E] [E] [E] [E] [E] [E] [E]  
 
 |-----------------|-----------------|-----------------|-----------------|
 |-----------------|-----------------|-----------------|-----------------|
 |-----------------|-----------------|-4-4-4-4-4-4-4-4-|-----------------|
 |-6-6-6-6-6-6-6-6-|-4-4-4-4-4-4-4-4-|-4-4-4-4-4-4-4-4-|-2-2-2-2-2-2-2-2-|
 |-6-6-6-6-6-6-6-6-|-4-4-4-4-4-4-4-4-|-2-2-2-2-2-2-2-2-|-2-2-2-2-2-2-2-2-|
 |-4-4-4-4-4-4-4-4-|-2-2-2-2-2-2-2-2-|-----------------|-0-0-0-0-0-0-0-0-|

|
| E E E E E E E E E E E E E E E E E E E E E E E E E E E E E E E E
 
 |-----------------|-----------------|-----------------|-----------------|
 |-----------------|-----------------|-----------------|-----------------|
 |-4-4-4-4-4-4-4-4-|-3-3-3-3-3-3-3-3-|-4-4-4-4-4-4-4-4-|-4-4-4-4-4-4-4-4-|
 |-----------------|-----------------|-----------------|-----------------|
 |-2-2-2-2-2-2-2-2-|-1-1-1-1-1-1-1-1-|-2-2-2-2-2-2-2-2-|-2-2-2-2-2-2-2-2-|
 |-----------------|-----------------|-----------------|-----------------|

[F#5]  
[E] [E] [E] [E] [E] [E] [E] [E] [E] [E] [E] [E] [E] [E] [E] [E]  
 
 |-----------------|-----------------|
 |-----------------|-----------------|
 |-----------------|-----------------|
 |-4-4-4-4-4-4-4-4-|-4-4-4-4-4-4-4-4-|
 |-4-4-4-4-4-4-4-4-|-4-4-4-4-4-4-4-4-|
 |-2-2-2-2-2-2-2-2-|-2-2-2-2-2-2-2-2-|

|
| E E E E E E E E E E E E E E E E
 
 |-----------------|-----------------|
 |-----------------|-----------------|
 |-3-3-3-3-3-3-3-3-|-3-3-3-3-3-3-3-3-|
 |-----------------|-----------------|
 |-1-1-1-1-1-1-1-1-|-1-1-1-1-1-1-1-1-|
 |-----------------|-----------------|

Sixth Day of Christmas
[B5] [F#5] 
[3/4]  
 
 PM------------------------------------------|

Q E E E E E E E E E E E E E E E E E E E E
 
 |-----------------|-----------------|----------------|
 |-----------------|-----------------|----------------|
 |-4--4--4-4-4-4-4-|-4-4-4-4-4-4-4-4-|----------------|
 |-4--4--4-4-4-4-4-|-4-4-4-4-4-4-4-4-|-4--4-4-4-4-4---|
 |-2--2--2-2-2-2-2-|-2-2-2-2-2-2-2-2-|-4--4-4-4-4-4---|
 |-----------------|-----------------|-2--2-2-2-2-2---|

|
| Q H. W H.
 
 |-----------------|-----------------|----------------|
 |-----------------|-----------------|----------------|
 |-4---------------|-----------------|----------------|
 |-----------------|-----------------|----------------|
 |-2---------------|-----------------|----------------|
 |-----------------|-----------------|----------------|

[B5] [C#/F] [F#5]  
[4/4] W W E E E E E E E E E E E E E E E E
 
 |----------|-----------|-------------------------|--------------------------|
 |----------|-----------|-------------------------|--------------------------|
 |-4--------|-----------|-------------------------|--------------------------|
 |-4--------|--3--------|--4--4--4--4--4--4--4--4-|--4--4--4--4--4--4--4--4--|
 |-2--------|--4--------|--4--4--4--4--4--4--4--4-|--4--4--4--4--4--4--4--4--|
 |----------|--1--------|--2--2--2--2--2--2--2--2-|--2--2--2--2--2--2--2--2--|

|
| W W E E E E E E E E E E E E E E E E
 
 |----------|-----------|-------------------------|--------------------------|
 |----------|-----------|-------------------------|--------------------------|
 |-9--------|-10--------|-11-11-11-11-11-11-11-11-|-11-11-11-11-11-11-11-11--|
 |----------|-----------|-------------------------|--------------------------|
 |-7--------|--8--------|--9--9--9--9--9--9--9--9-|--9--9--9--9--9--9--9--9--|
 |----------|-----------|-------------------------|--------------------------|

[B5] [E5] [C#/F] [F#5] [E5] [F#5] 
[3/4] E E E E E E E E E E E E [4/4] E E E E E E E E Q Q E E Q
 
 |-------------|-------------|-----------------|----------------|
 |-------------|-------------|-----------------|----------------|
 |-4-4-4-4-4-4-|-------------|-----------------|----------------|
 |-4-4-4-4-4-4-|-2-2-2-2-2-2-|-3-3-3-3-4-4-4-4-|-2---4--x-x--4--|
 |-2-2-2-2-2-2-|-2-2-2-2-2-2-|-4-4-4-4-4-4-4-4-|-2---4--x-x--4--|
 |-------------|-0-0-0-0-0-0-|-1-1-1-1-2-2-2-2-|-0---2--x-x--2--|

|
| E E E E E E E E E E E E E E E E E E E E Q Q Q Q
 
 |-------------|-------------|-----------------|----------------|
 |-------------|-------------|-----------------|----------------|
 |-4-4-4-4-4-4-|-4-4-4-4-4-4-|-----------------|-9--11------11--|
 |-------------|-------------|-3-3-3-3-4-4-4-4-|----------------|
 |-2-2-2-2-2-2-|-2-2-2-2-2-2-|-----------------|-7---9-------9--|
 |-------------|-------------|-1-1-1-1-2-2-2-2-|----------------|

Seventh Day of Christmas
[B5] [B] [F#] [B] [F#] 
Gtr III[3/4]
E E E E E E E E Q E E Q E E E E E E Q E E Q E E E E
 
 |-----------------|-2--2-2-2--2-2-|--2--2-2-2-2--2-2-|-2--2-2-2-2--|
 |-----------------|-4--4-4-4--4-4-|--2--2-2-2-4--4-4-|-2--2-2-2-2--|
 |-4-4-4-4-4-4-4-4-|-4--4-4-4--4-4-|--3--3-3-3-4--4-4-|-3--3-3-3-3--|
 |-4-4-4-4-4-4-4-4-|-4--4-4-4--4-4-|--4--4-4-4-4--4-4-|-4--4-4-4-4--|
 |-2-2-2-2-2-2-2-2-|-2--2-2-2--2-2-|--4--4-4-4-2--2-2-|-4--4-4-4-4--|
 |-----------------|---------------|--2--2-2-2--------|-2--2-2-2-2--|

|
| >
| E E E E E E E E W +W W
 
 |-----------------|---------------|------------------|-------------|
 |-----------------|---------------|------------------|-------------|
 |-8-8-8-8-8-8-8-8-|-4-------------|-(4)--------------|-------------|
 |-----------------|---------------|------------------|-------------|
 |-6-6-6-6-6-6-6-6-|-2-------------|-(2)--------------|-------------|
 |-----------------|---------------|------------------|-------------|

[F#] [B] [C#] [F#] 
Gtr III[4/4]
Q E E E E Q Q Q Q Q Q Q Q E E E E E E E E
 
 |-2--2-2-2-2-|-2--2--2--2--|-1--1--1--1--|-2-2-2-2-2-2-2-2--|
 |-2--2-2-2-2-|-4--4--4--4--|-2--2--2--2--|-2-2-2-2-2-2-2-2--|
 |-3--3-3-3-3-|-4--4--4--4--|-1--1--1--1--|-3-3-3-3-3-3-3-3--|
 |-4--4-4-4-4-|-4--4--4--4--|-3--3--3--3--|-4-4-4-4-4-4-4-4--|
 |-4--4-4-4-4-|-2--2--2--2--|-4--4--4--4--|-4-4-4-4-4-4-4-4--|
 |-2--2-2-2-2-|-------------|-1--1--1--1--|-2-2-2-2-2-2-2-2--|

[B5] [E5] [C#/F] [F#5] 
[3/4] Gtr I[4/4]
[E] [E] [E] [E] [E] [E] [E] [E] [E] [E] [E] [E] [E] [E] [E] [E] [E] [E] [E] [E] [E] [E] [E] [E] [E] [E] [E] [E]  
 
 |-2-2-2-2-2-2-2-2-|-------------|-------------|-----------------|
 |-2-2-2-2-2-2-2-2-|-------------|-------------|-----------------|
 |-3-3-3-3-3-3-3-3-|-4-4-4-4-4-4-|-------------|-----------------|
 |-4-4-4-4-4-4-4-4-|-4-4-4-4-4-4-|-2-2-2-2-2-2-|-3-3-3-3-4-4-4-4-|
 |-4-4-4-4-4-4-4-4-|-2-2-2-2-2-2-|-2-2-2-2-2-2-|-4-4-4-4-4-4-4-4-|
 |-2-2-2-2-2-2-2-2-|-------------|-0-0-0-0-0-0-|-1-1-1-1-2-2-2-2-|

|
| Gtr II
| H q q E E E E E E E E E E E E E E E E E E E E
 
 |-----------------|-------------|-------------|-----------------|
 |-----------------|-------------|-------------|-----------------|
 |-----------------|-4-4-4-4-4-4-|-4-4-4-4-4-4-|-----------------|
 |---------4---4---|-------------|-------------|-3-3-3-3-4-4-4-4-|
 |---------4---4---|-2-2-2-2-2-2-|-2-2-2-2-2-2-|-----------------|
 |---------2---2---|-------------|-------------|-1-1-1-1-2-2-2-2-|

Eighth Day of Christmas
[E5] [F#5] [B5] [F#5] 
Q Q E E Q E E E E E E E E q q q q q q q q [3/4] q q q
 
 |----------------|-----------------|-------------|-------------|------------|
 |----------------|-----------------|-------------|-------------|------------|
 |----------------|-4-4-4-4-4-4-4-4-|-4--4--4--4--|-4--4--4--4--|------------|
 |-2---4--x-x--4--|-4-4-4-4-4-4-4-4-|-4--4--4--4--|-4--4--4--4--|-4--4--4----|
 |-2---4--x-x--4--|-2-2-2-2-2-2-2-2-|-2--2--2--2--|-2--2--2--2--|-4--4--4----|
 |-0---2--x-x--2--|-----------------|-------------|-------------|-2--2--2----|

|
| Q Q Q Q E E E E E E E E q q q q q q q q q q q
 
 |----------------|-----------------|-------------|-------------|------------|
 |----------------|-----------------|-------------|-------------|------------|
 |-9--11------11--|-8-8-8-8-8-8-8-8-|-8--8--8--8--|-8--8--8--8--|------------|
 |----------------|-----------------|-------------|-------------|-8--8--8----|
 |-7---9-------9--|-6-6-6-6-6-6-6-6-|-6--6--6--6--|-6--6--6--6--|------------|
 |----------------|-----------------|-------------|-------------|-6--6--6----|

[B5] [C#/F] [F#5] 
q q q q q q [4/4] q q q q q q q q q q q q
 
 |----------|----------|-------------|-------------|------------------|
 |----------|----------|-------------|-------------|------------------|
 |----------|----------|-4--4--4--4--|-------------|------------------|
 |-4--4--4--|-4--4--4--|-4--4--4--4--|-3--3--3--3--|--4---4---4---4---|
 |-4--4--4--|-4--4--4--|-2--2--2--2--|-4--4--4--4--|--4---4---4---4---|
 |-2--2--2--|-2--2--2--|-------------|-1--1--1--1--|--2---2---2---2---|

|
| q q q q q q q q q q q q q q q q q q
 
 |----------|----------|-------------|-------------|------------------|
 |----------|----------|-------------|-------------|------------------|
 |----------|----------|-8--8--8--8--|-6--6--6--6--|-11--11--11--11---|
 |-8--8--8--|-8--8--8--|-------------|-------------|------------------|
 |----------|----------|-6--6--6--6--|-4--4--4--4--|--9---9---9---9---|
 |-6--6--6--|-6--6--6--|-------------|-------------|------------------|

[B5] [F#5] [C#/FF#5] 
[3/4] PM----| PM| PM[4/4]
q q q q E E E E Q E E E E Q Q Q Q Q
 
 |-----------------|------------|------------|---------------|
 |-----------------|------------|------------|---------------|
 |-----------------|-4-4-4-4-4--|------------|---------------|
 |--4---4---4---4--|-4-4-4-4-4--|-4-4-4-4-4--|-----3---4-----|
 |--4---4---4---4--|-2-2-2-2-2--|-4-4-4-4-4--|-----4---4-----|
 |--2---2---2---2--|------------|-2-2-2-2-2--|-----1---2-----|

|
| q q q q H Q Q Q Q Q Q Q Q
 
 |-----------------|------------|------------|---------------|
 |-----------------|------------|------------|---------------|
 |-11--11--11--11--|---------4--|-----9---9--|----10--11-----|
 |-----------------|------------|------------|---------------|
 |--9---9---9---9--|---------2--|-----7---7--|-----8---9-----|
 |-----------------|------------|------------|---------------|

[E5]Q [F#5] Q E E Q [B5]E E E E E E E E
 
 |----------------|-----------------|
 |----------------|-----------------|
 |----------------|-4-4-4-4-4-4-4-4-|
 |-2---4--x-x--4--|-4-4-4-4-4-4-4-4-|
 |-2---4--x-x--4--|-2-2-2-2-2-2-2-2-|
 |-0---2--x-x--2--|-----------------|

|
| Q Q Q Q E E E E E E E E
 
 |----------------|-----------------|
 |----------------|-----------------|
 |-9--11------11--|-8-8-8-8-8-8-8-8-|
 |----------------|-----------------|
 |-7---9-------9--|-6-6-6-6-6-6-6-6-|
 |----------------|-----------------|

Ninth Day of Christmas
[E] [E] [E] [E] [E] [E] [E] [E] [E] [E] [E] [E] [E] [E] [E] [E]  
 
 |-------------------------|-------------------------|
 |-------------------------|-------------------------|
 |--4--4--4--4--4--4--4--4-|--4--4--4--4--4--4--4--4-|
 |--4--4--4--4--4--4--4--4-|--4--4--4--4--4--4--4--4-|
 |--2--2--2--2--2--2--2--2-|--2--2--2--2--2--2--2--2-|
 |-------------------------|-------------------------|

|
| E E E E E E E E E E E E E E E E
 
 |-------------------------|-------------------------|
 |-------------------------|-------------------------|
 |-11-11-11-11-11-11-11-11-|-11-11-11-11-11-11-11-11-|
 |-------------------------|-------------------------|
 |--9--9--9--9--9--9--9--9-|--9--9--9--9--9--9--9--9-|
 |-------------------------|-------------------------|

[F#5]  
[3/4]  
[E] [E] [E] [E] [E] [E] [E] [E] [E] [E] [E] [E]  
 
 |-------------------|-------------------|
 |-------------------|-------------------|
 |-------------------|-------------------|
 |--4--4--4--4--4--4-|--4--4--4--4--4--4-|
 |--4--4--4--4--4--4-|--4--4--4--4--4--4-|
 |--2--2--2--2--2--2-|--2--2--2--2--2--2-|

|
| E E E E E E E E E E E E
 
 |-------------------|-------------------|
 |-------------------|-------------------|
 |-11-11-11-11-11-11-|-11-11-11-11-11-11-|
 |-------------------|-------------------|
 |--9--9--9--9--9--9-|--9--9--9--9--9--9-|
 |-------------------|-------------------|

[E] [E] [E] [E] [E] [E] [E] [E] [E] [E] [E] [E]  
 
 |-------------------|-------------------|
 |-------------------|-------------------|
 |-------------------|-------------------|
 |--4--4--4--4--4--4-|--4--4--4--4--4--4-|
 |--4--4--4--4--4--4-|--4--4--4--4--4--4-|
 |--2--2--2--2--2--2-|--2--2--2--2--2--2-|

|
| E E E E E E E E E E E E
 
 |-------------------|-------------------|
 |-------------------|-------------------|
 |-11-11-11-11-11-11-|-11-11-11-11-11-11-|
 |-------------------|-------------------|
 |--9--9--9--9--9--9-|--9--9--9--9--9--9-|
 |-------------------|-------------------|

[B5] [C#/F]  
[4/4]  
 
 PM-----------------------------------------

[E] [E] [E] [E] [E] [E] [E] [E] [E] [E] [E] [E] [E] [E] [E] [E]  
 
 |-----------------|-------------------------|
 |-----------------|-------------------------|
 |-4-4-4-4-4-4-4-4-|-------------------------|
 |-4-4-4-4-4-4-4-4-|--3--3--3--3--3--3--3--3-|
 |-2-2-2-2-2-2-2-2-|--4--4--4--4--4--4--4--4-|
 |-----------------|--1--1--1--1--1--1--1--1-|

|
 
 | PM-----------------------------------------

| E E E E E E E E E E E E E E E E
 
 |-----------------|-------------------------|
 |-----------------|-------------------------|
 |-6-6-6-6-6-6-6-6-|-10-10-10-10-10-10-10-10-|
 |-----------------|-------------------------|
 |-4-4-4-4-4-4-4-4-|--8--8--8--8--8--8--8--8-|
 |-----------------|-------------------------|

[F#5]  
 
 ------------------------------------------------|

[E] [E] [E] [E] [E] [E] [E] [E] [E] [E] [E] [E] [E] [E] [E] [E]  
 
 |-------------------------|--------------------------|
 |-------------------------|--------------------------|
 |-------------------------|--------------------------|
 |--4--4--4--4--4--4--4--4-|--4--4--4--4--4--4--4--4--|
 |--4--4--4--4--4--4--4--4-|--4--4--4--4--4--4--4--4--|
 |--2--2--2--2--2--2--2--2-|--2--2--2--2--2--2--2--2--|

|
 
 |------------------------------------------------|

| E E E E E E E E E E E E E E E E
 
 |-------------------------|--------------------------|
 |-------------------------|--------------------------|
 |-11-11-11-11-11-11-11-11-|-11-11-11-11-11-11-11-11--|
 |-------------------------|--------------------------|
 |--9--9--9--9--9--9--9--9-|--9--9--9--9--9--9--9--9--|
 |-------------------------|--------------------------|

[B5] [E5] [C#/F] [F#5] [E5] [F#5] 
[3/4] [4/4]  
 
 PM------------------------------------------------|

E E E E E E E E E E E E E E E E E E E E Q Q E E Q
 
 |-------------------|-------------|---------------------|----------------|
 |-------------------|-------------|---------------------|----------------|
 |--4--4--4--4--4--4-|-------------|---------------------|----------------|
 |--4--4--4--4--4--4-|-2-2-2-2-2-2-|-3-3-3-3--4--4--4--4-|-2---4--x-x--4--|
 |--2--2--2--2--2--2-|-2-2-2-2-2-2-|-4-4-4-4--4--4--4--4-|-2---4--x-x--4--|
 |-------------------|-0-0-0-0-0-0-|-1-1-1-1--2--2--2--2-|-0---2--x-x--2--|

|
 
 | PM------------------------------------------------|

| E E E E E E E E E E E E E E E E E E E E Q Q Q Q
 
 |-------------------|-------------|---------------------|----------------|
 |-12-12-12-12-12-12-|-9-9-9-9-9-9-|-9-9-9-9-11-11-11-11-|----------------|
 |-------------------|-------------|---------------------|-9--11------11--|
 |--9--9--9--9--9--9-|-6-6-6-6-6-6-|-6-6-6-6--8--8--8--8-|----------------|
 |-------------------|-------------|---------------------|-7---9-------9--|
 |-------------------|-------------|---------------------|----------------|

Bridge
[B5] [E5] [G#5] 
[E] [E] [E] [E] [E] [E] [E] [E] [E] [E] [E] [E] [E] [E] [E] [E] [E] [E] [E] [E] [E] [E] [E] [E] [E] [E] [E] [E] [E] [E] [E] [E]  
 
 |-----------------|-----------------|-----------------|-----------------|
 |-----------------|-----------------|-----------------|-----------------|
 |-4-4-4-4-4-4-4-4-|-4-4-4-4-4-4-4-4-|-----------------|-----------------|
 |-4-4-4-4-4-4-4-4-|-4-4-4-4-4-4-4-4-|-2-2-2-2-2-2-2-2-|-6-6-6-6-6-6-6-6-|
 |-2-2-2-2-2-2-2-2-|-2-2-2-2-2-2-2-2-|-2-2-2-2-2-2-2-2-|-6-6-6-6-6-6-6-6-|
 |-----------------|-----------------|-0-0-0-0-0-0-0-0-|-4-4-4-4-4-4-4-4-|

|
| E E E E E E E E E E E E E E E E E E E E E E E E E E E E E E E E
 
 |-----------------|-----------------|-----------------|-----------------|
 |-----------------|-----------------|-----------------|-----------------|
 |-8-8-8-8-8-8-8-8-|-4-4-4-4-4-4-4-4-|-4-4-4-4-4-4-4-4-|-4-4-4-4-4-4-4-4-|
 |-----------------|-----------------|-----------------|-----------------|
 |-6-6-6-6-6-6-6-6-|-2-2-2-2-2-2-2-2-|-2-2-2-2-2-2-2-2-|-2-2-2-2-2-2-2-2-|
 |-----------------|-----------------|-----------------|-----------------|

[F#5] [B5] [E5] 
[E] [E] [E] [E] [E] [E] [E] [E] [E] [E] [E] [E] [E] [E] [E] [E] [E] [E] [E] [E] [E] [E] [E] [E]  
 
 |-----------------|-----------------|-----------------|
 |-----------------|-----------------|-----------------|
 |-----------------|-4-4-4-4-4-4-4-4-|-----------------|
 |-4-4-4-4-4-4-4-4-|-4-4-4-4-4-4-4-4-|-2-2-2-2-2-2-2-2-|
 |-4-4-4-4-4-4-4-4-|-2-2-2-2-2-2-2-2-|-2-2-2-2-2-2-2-2-|
 |-2-2-2-2-2-2-2-2-|-----------------|-0-0-0-0-0-0-0-0-|

|
| E E E E E E E E E E E E E E E E E E E E E E E E
 
 |-----------------|-----------------|-----------------|
 |-----------------|-----------------|-----------------|
 |-3-3-3-3-3-3-3-3-|-4-4-4-4-4-4-4-4-|-4-4-4-4-4-4-4-4-|
 |-----------------|-----------------|-----------------|
 |-1-1-1-1-1-1-1-1-|-2-2-2-2-2-2-2-2-|-2-2-2-2-2-2-2-2-|
 |-----------------|-----------------|-----------------|

[F#5] PM|
|--3--|
E E E E E E E E Q Q Q q E E
 
 |-------------------------|--------------------|
 |-------------------------|--------------------|
 |-------------------------|--------------------|
 |--4--4--4--4--4--4--4--4-|--4--4--4--4--5-5---|
 |--4--4--4--4--4--4--4--4-|--4--4--4--4--5-5---|
 |--2--2--2--2--2--2--2--2-|--2--2--2--2--3-3---|

|
| |--3--|
| E E E E E E E E Q Q Q q Q
 
 |-------------------------|--------------------|
 |-------------------------|--------------------|
 |-11-11-11-11-11-11-11-11-|-11-11-11-11--------|
 |-------------------------|--------------------|
 |--9--9--9--9--9--9--9--9-|--9--9--9--9--------|
 |-------------------------|--------------------|

Tenth Day of Christmas
[C5] [G5] 
[3/4]  
 
 PM--------------------------|

Q E E E E E E E E E E E E E E H. H. H.
 
 |----------------|-----------------|---------|---------|-------|
 |----------------|-----------------|---------|---------|-------|
 |-5--5-5-5-5-5-5-|-5-5-5-5-5-5-5-5-|---------|---------|-------|
 |-5--5-5-5-5-5-5-|-5-5-5-5-5-5-5-5-|-5-------|-5-------|-5-----|
 |-3--3-3-3-3-3-3-|-3-3-3-3-3-3-3-3-|-5-------|-5-------|-5-----|
 |----------------|-----------------|-3-------|-3-------|-3-----|

|
 
 | PM--------------------------|

| Q E E E E E E E E E E E E E E H. H. H.
 
 |----------------|-----------------|---------|---------|-------|
 |----------------|-----------------|---------|---------|-------|
 |-5--5-5-5-5-5-5-|-5-5-5-5-5-5-5-5-|-4-------|-4-------|-4-----|
 |----------------|-----------------|---------|---------|-------|
 |-3--3-3-3-3-3-3-|-3-3-3-3-3-3-3-3-|-2-------|-2-------|-2-----|
 |----------------|-----------------|---------|---------|-------|

[C5] [D/F#] [G5] 
H. H. [4/4] W W E E E E E E E E
 
 |---------|---------|----------|-----------|-------------------------|
 |---------|---------|----------|-----------|-------------------------|
 |---------|---------|-5--------|-----------|-------------------------|
 |-5-------|-5-------|-5--------|--4--------|--5--5--5--5--5--5--5--5-|
 |-5-------|-5-------|-3--------|--5--------|--5--5--5--5--5--5--5--5-|
 |-3-------|-3-------|----------|--2--------|--3--3--3--3--3--3--3--3-|

|
| H. H. W W E E E E E E E E
 
 |---------|---------|----------|-----------|-------------------------|
 |---------|---------|----------|-----------|-------------------------|
 |-4-------|-4-------|-5--------|-10--------|-12-12-12-12-12-12-12-12-|
 |---------|---------|----------|-----------|-------------------------|
 |-2-------|-2-------|-3--------|--8--------|-10-10-10-10-10-10-10-10-|
 |---------|---------|----------|-----------|-------------------------|

[C5]  
E E E E E E E E [3/4] Q H
 
 |-------------------------|----------|
 |-------------------------|----------|
 |-------------------------|-5--------|
 |--5--5--5--5--5--5--5--5-|-5--------|
 |--5--5--5--5--5--5--5--5-|-3--------|
 |--3--3--3--3--3--3--3--3-|----------|

|
| E E E E E E E E H.
 
 |-------------------------|----------|
 |-------------------------|----------|
 |-12-12-12-12-12-12-12-12-|----------|
 |-------------------------|----------|
 |-10-10-10-10-10-10-10-10-|----------|
 |-------------------------|----------|

[F5] [D/F#] [G5] [F5] [G5]  
Q Q Q [4/4] Q Q Q Q Q Q E E Q
 
 |-----------|-------------|------------------|
 |-----------|-------------|------------------|
 |-----------|-------------|------------------|
 |-3---3-----|-4-----5-----|--3---5--x-x--5---|
 |-3---3-----|-5-----5-----|--3---5--x-x--5---|
 |-1---1-----|-2-----3-----|--1---3--x-x--3---|

|
| H. W Q Q Q Q
 
 |-----------|-------------|------------------|
 |-----------|-------------|------------------|
 |-----------|-------------|-10--12------12---|
 |-----------|-------------|------------------|
 |-----------|-------------|--8--10------10---|
 |-----------|-------------|------------------|

Eleventh Day of Christmas
C5 C5 N.C.
>[3/4]
E E E E E E E E W W Wx6
 
 |-----------------|----------|----------|--------|
 |-----------------|----------|----------|--------|
 |-5-5-5-5-5-5-5-5-|-5--------|----------|--------|
 |-5-5-5-5-5-5-5-5-|-5--------|----------|--------|
 |-3-3-3-3-3-3-3-3-|-3--------|----------|--------|
 |-----------------|----------|----------|--------|

|
| >
| E E E E E E E E W W Wx6
 
 |-----------------|----------|----------|--------|
 |-----------------|----------|----------|--------|
 |-9-9-9-9-9-9-9-9-|-5--------|----------|--------|
 |-----------------|----------|----------|--------|
 |-7-7-7-7-7-7-7-7-|-3--------|----------|--------|
 |-----------------|----------|----------|--------|

[C5]  
[4/4] Wx3 H E E E E [3/4] E E E E E E
 
 |------------|--------------|-------------|
 |------------|--------------|-------------|
 |------------|--------------|-5-5-5-5-5-5-|
 |------------|------x-x-x-x-|-5-5-5-5-5-5-|
 |------------|------x-x-x-x-|-3-3-3-3-3-3-|
 |------------|------x-x-x-x-|-------------|

|
| Wx3 H E E E E E E E E E E
 
 |------------|--------------|-------------|
 |------------|--------------|-------------|
 |------------|------x-x-x-x-|-5-5-5-5-5-5-|
 |------------|--------------|-------------|
 |------------|------x-x-x-x-|-3-3-3-3-3-3-|
 |------------|--------------|-------------|

[F5] [D/F#] [G5]  
[4/4]  
[E] [E] [E] [E] [E] [E] [E] [E] [E] [E] [E] [E] [E] [E]  
 
 |-------------------|-------------------------|
 |-------------------|-------------------------|
 |-------------------|-------------------------|
 |--3--3--3--3--3--3-|--4--4--4--4--5--5--5--5-|
 |--3--3--3--3--3--3-|--5--5--5--5--5--5--5--5-|
 |--1--1--1--1--1--1-|--2--2--2--2--3--3--3--3-|

|
| E E E E E E E E E E E E E E
 
 |-------------------|-------------------------|
 |-------------------|-------------------------|
 |-10-10-10-10-10-10-|-11-11-11-11-12-12-12-12-|
 |-------------------|-------------------------|
 |--8--8--8--8--8--8-|--9--9--9--9-10-10-10-10-|
 |-------------------|-------------------------|

Twelfth Day of Christmas
[F5] [G5] [C5]  
 
 PM--------------------------|

Q Q E E Q E E E E E E E E Q E E E E E E E E E E E E E E
 
 |-----------------|-----------------|----------------|-----------------|
 |-----------------|-----------------|----------------|-----------------|
 |-----------------|-5-5-5-5-5-5-5-5-|-5--5-5-5-5-5-5-|-5-5-5-5-5-5-5-5-|
 |--3---5--x-x--5--|-5-5-5-5-5-5-5-5-|-5--5-5-5-5-5-5-|-5-5-5-5-5-5-5-5-|
 |--3---5--x-x--5--|-3-3-3-3-3-3-3-3-|-3--3-3-3-3-3-3-|-3-3-3-3-3-3-3-3-|
 |--1---3--x-x--3--|-----------------|----------------|-----------------|

|
 
 | PM--------------------------|

| Q Q Q Q E E E E E E E E Q E E E E E E E E E E E E E E
 
 |-----------------|-----------------|----------------|-----------------|
 |-----------------|-----------------|----------------|-----------------|
 |-10--12------12--|-9-9-9-9-9-9-9-9-|-5--5-5-5-5-5-5-|-5-5-5-5-5-5-5-5-|
 |-----------------|-----------------|-5--5-5-5-5-5-5-|-5-5-5-5-5-5-5-5-|
 |--8--10------10--|-7-7-7-7-7-7-7-7-|-3--3-3-3-3-3-3-|-3-3-3-3-3-3-3-3-|
 |-----------------|-----------------|----------------|-----------------|

[G5]  
[3/4] Gtrs I, II
>
H. +H. +H. +H. +H. +H. +H.
 
 |---------|----------|----------|----------|----------|----------|--------|
 |---------|----------|----------|----------|----------|----------|--------|
 |---------|----------|----------|----------|----------|----------|--------|
 |-5-------|-(5)------|-(5)------|-(5)------|-(5)------|-(5)------|-(5)----|
 |-5-------|-(5)------|-(5)------|-(5)------|-(5)------|-(5)------|-(5)----|
 |-3-------|-(3)------|-(3)------|-(3)------|-(3)------|-(3)------|-(3)----|

[C5] [D/F#]  
[4/4] Gtr I
 
 |-3-| |-3-| |--3--| |--3--|

Q Q Q Q Q Q Q Q Q Q Q Q
 
 |-------------|-------------------|
 |-------------|-------------------|
 |-5-5-5-5-5-5-|-------------------|
 |-5-5-5-5-5-5-|--4--4--4--4--4--4-|
 |-3-3-3-3-3-3-|--5--5--5--5--5--5-|
 |-------------|--2--2--2--2--2--2-|

|
| Gtr II
 
 | |-3-| |-3-| |--3--| |--3--|

| Q Q Q Q Q Q Q Q Q Q Q Q
 
 |-------------|-------------------|
 |-------------|-------------------|
 |-5-5-5-5-5-5-|-11-11-11-11-11-11-|
 |-------------|-------------------|
 |-3-3-3-3-3-3-|--9--9--9--9--9--9-|
 |-------------|-------------------|

[G5]  
[E] [E] [E] [E] [E] [E] [E] [E] [E] [E] [E] [E] [E] [E] [E] [E]  
 
 |-------------------------|-------------------------|
 |-------------------------|-------------------------|
 |-------------------------|-------------------------|
 |--5--5--5--5--5--5--5--5-|--5--5--5--5--5--5--5--5-|
 |--5--5--5--5--5--5--5--5-|--5--5--5--5--5--5--5--5-|
 |--3--3--3--3--3--3--3--3-|--3--3--3--3--3--3--3--3-|

|
| E E E E E E E E E E E E E E E E
 
 |-------------------------|-------------------------|
 |-------------------------|-------------------------|
 |-12-12-12-12-12-12-12-12-|-12-12-12-12-12-12-12-12-|
 |-------------------------|-------------------------|
 |-10-10-10-10-10-10-10-10-|-10-10-10-10-10-10-10-10-|
 |-------------------------|-------------------------|

[C5] [F5] [D/F#] [G5] [F5] [G5] 
[3/4] q H q q Q [4/4] Q Q Q Q H H
 
 |----------|-----------|-------------|-----------|
 |----------|-----------|-------------|-----------|
 |-5--------|-----------|-------------|-----------|
 |-5--------|-3---3-----|-4-----5-----|-3----5----|
 |-3--------|-3---3-----|-5-----5-----|-3----5----|
 |----------|-1---1-----|-2-----3-----|-1----3----|

|
| H. H. W H H
 
 |----------|-----------|-------------|-----------|
 |----------|-----------|-------------|-----------|
 |----------|-----------|-------------|-5----5----|
 |----------|-----------|-------------|-----------|
 |----------|-----------|-------------|-3----3----|
 |----------|-----------|-------------|-----------|

[C5]>
Q Q H W +W +W +W
 
 |------------|----------|------------|------------|--------*|
 |------------|----------|------------|------------|--------*|
 |------------|-5--------|-(5)--------|-(5)--------|-(5)----*|
 |-x--x--5----|-5--------|-(5)--------|-(5)--------|-(5)----*|
 |-x--x--5----|-3--------|-(3)--------|-(3)--------|-(3)----*|
 |-x--x--3----|----------|------------|------------|--------*|

|
| >
| Q Q H W +W +W +W
 
 |------------|----------|------------|------------|--------*|
 |------------|----------|------------|------------|--------*|
 |-x--x--7----|-5--------|-(5)--------|-(5)--------|-(5)----*|
 |------------|----------|------------|------------|--------*|
 |-x--x--5----|-3--------|-(3)--------|-(3)--------|-(3)----*|
 |------------|----------|------------|------------|--------*|


Important: The song above is NOT stored on the Chordie server. The original song is hosted at www.guitartabs.cc. Chordie works as a search engine and provides on-the-fly formatting. Chordie does not index songs against artists'/composers' will. To remove this song please click here.

Text color:
Chord color:
Chord grids: 
Font size:    
Page size: 

B B5 C# C#/F C5 D/F# E E5 F# F#5 F5 G#5 G5
Rate #1 of 8 versions

Login - add to songbook

SHARE PAGE  




You need to log in to post comments