Guitar Tabs, Chords and Lyrics
Server problems seems to be fixed. Chordie has been experiencing problems with songs disappearing. These issues now seems to be fixed, but still verifying the fix. If you find anything strange, please email admin@chordie.com.


Getting Into You  Relient K

BY RELIENT K
Intro:
 
 E|----------------------------|
 B|----0-----0-----0-----------|
 G|-----1-----1-----1----------|
 D|---2-----2-----2------------|
 A|-------------0--------------|
 E|-0-----2-----------2--------|

[E]When I m[B]ade up my mi[F#sus]nd
And my he[A2]art along with th[E]at
To l[B]ive not for mys[F#sus]elf
But yet for G[A2]od, somebody sa[E]id
Do you[B] know what you[F#sus] are getting y[A2]ourself int[E]o
[E]When I f[B]inally ironed [F#sus]out
All of m[A2]y prioriti[E]es and
And asked G[B]od to remove the do[F#sus]ubt
That makes me s[A2]o unsure of the[E]e
Things I as[B]k mysel[F#sus]f, I a[A2]sk myself
[E]Do you[B] know what yo[F#sus]u are getting y[A2]ourself in[E]to
Chorus
[E]Iím getting into y[B]ou
Because you got to [F#sus]me, in a way words canít desc[A2]ribe
[E]Iím getting into yo[B]u
Because Iíve got to b[F#sus]e
Youíre essential to sur[A2]vive
Iím going to love you with my [E]life
Intro: 2x
( Tab from: http://www.guitartabs.cc/tabs/r/relient_k/getting_into_you_crd_ver_2.html )
 
 E----------------------------------------|
 B-------0--------0--------0------2-------|
 G---------1--------1--------1------2-1---|
 D-----2--------2--------2----------------|
 A---------------------0------------------|
 E---0--------2-----------------2---------|

[E]When he lo[B]oked at me and s[F#sus]aid
I kind of v[A2]iew you as a s[E]on
And for a s[B]econd our eyes [F#sus]met
And I met th[A2]at with a quest[E]ion
[E]Do you[B] know what yo[F#sus]u are getting y[A2]ourself in[E]to
Repeat Chorus
[F#]Iíve been a l[B]iar and Iíll n[A]ever amount t[E]o
[F#]The kind of p[B]erson you dese[A]rve to worship y[E]ou
[F#]You say you will not dw[B]ell on what I did but r[A]ather what I [E]do say
[E]I love you[B] and thatís what you[F#sus] are getting y[A2]ourself int[E]o
Repeat Chorus 2x
 
 E----------------------------------------|
 B-------0--------0--------0------2-------|
 G---------1--------1--------1------2-1---|
 D-----2--------2--------2----------------|
 A---------------------0------------------|
 E---0--------2-----------------2---------|

He said,[E] I love you[B] and thatís what you[F#sus] are getting you[A2]rself int[E]o
Lyrics from Jaeson Rosa, thank you for viewing
God BlessÖ

Important: The song above is NOT stored on the Chordie server. The original song is hosted at www.guitartabs.cc. Chordie works as a search engine and provides on-the-fly formatting. Chordie does not index songs against artists'/composers' will. To remove this song please click here.

Text color:
Chord color:
Chord grids: 
Font size:    
Page size: 

A A2 B E F# F#sus
Rate #2 of 12 versions

Login - add to songbook

SHARE PAGE  




You need to log in to post comments