Guitar Tabs, Chords and Lyrics
Server problems seems to be fixed. Chordie has been experiencing problems with songs disappearing. These issues now seems to be fixed, but still verifying the fix. If you find anything strange, please email admin@chordie.com.


This Week the Trend  Relient K

THIS WEEK THE TREND
As recorded by Relient K
(From the 2004 Album MMHMM)
Words and Music by Matthew Thiessen
Transcribed by Liam Briggs - briggs.liam@gmail.com
Gtr I (Eb Ab Db Gb Bb Eb) - 'Guitar 1'
Gtr II (Eb Ab Db Gb Bb Eb) - 'Guitar 2'
Gtr III (Eb Ab Db Gb Bb Eb) - 'Guitar 3'
Gtr IV (Eb Ab Db Gb Bb Eb) - 'Guitar 4'
Gtr V (Eb Ab Db Gb Bb Eb) - 'Guitar 5'
Intro
Fast Rock Q=180
A5 N.C. A5
[4/4] Gtr I
H Q. E +E E E E E E E E E E E E E E E E
 
 |----------------|----------------------|-----------------------|
 |----------------|----------------------|-----------------------|
 |----------------|----------------------|-----------------------|
 |----------------|-------11-11-9-9\-----|----------6---6---7----|
 |--------------0-|-(0)-0------------4-4-|-5-5-7-7-------------0-|
 |----------------|----------------------|-----------------------|

|
| Gtrs II, III
| <
| H +Q. E W H E E E E
 
 |----------------|----------------------|-----------------------|
 |-10----(10)-----|----------------------|-----------------------|
 |--9-----(9)-----|----------------------|---------------------2-|
 |--7-----(7)-----|----------------------|---------------------2-|
 |----------------|----------------------|---------------------0-|
 |----------------|----------------------|--------------|

[Dsus2/A] 
[+E] [E] [E] [E] [E] [E] [E] [E] [E] [E] [E] [E] [E] [E] [E] [E]  
 
 |----------------------|-----------------|
 |----------------------|-----------------|
 |----------------------|-----------------|
 |-------11-11-9-9\-----|---------6-6-7-0-|
 |-(0)-0------------4-4-|-5-5-7-7---------|
 |----------------------|-----------------|

|
| +Q Q Q Q E E E E E E E E
 
 |----------------------|---------------0-|
 |--------5----5----5---|-5-5-5-5-5-5---3-|
 |-(2)----2----2----2---|-2-2-2-2-2-2---2-|
 |-(2)----2----2----2---|-2-2-2-2-2-2---0-|
 |-(0)----0----0----0---|-0-0-0-0-0-0---0-|
 |----------------------|-----------------|

[+E] [E] [E] [E] [E] [E] [E] [E] [E] [E] [E] [E] [E] [E] [E] [E]  
 
 |----------------------|-----------------|
 |----------------------|-----------------|
 |----------------------|-----------------|
 |-(0)-0-11-11-9-9\-----|---------6-6-7-0-|
 |------------------4-4-|-5-5-7-7---------|
 |----------------------|-----------------|

|
| +Q Q E E E E E E E E E E E E
 
 |-(0)----0----0-0--0-0-|-0-0-0-0-0-0---0-|
 |-(3)----3----3-3--3-3-|-3-3-3-3-3-3---3-|
 |-(2)----2----2-2--2-2-|-2-2-2-2-2-2---2-|
 |-(0)----0----0-0--0-0-|-0-0-0-0-0-0---0-|
 |-(0)----0----0-0--0-0-|-0-0-0-0-0-0---0-|
 |----------------------|-----------------|

[A5] 
[+E] [E] [E] [E] [E] [E] [E] [E] [E] [E] [E] [E] [E] [E] [E] [E]  
 
 |----------------------|------------------|
 |----------------------|------------------|
 |----------------------|------------------|
 |-(0)-0-11-11-9-9\-----|---------6-6-7----|
 |------------------4-4-|-5-5-7-7-------0--|
 |----------------------|------------------|

|
| +E E Q E E E E E E E E E E E E
 
 |-(0)-0--0----0-0--0-0-|-0-0-0-0-0-0------|
 |-(3)-3--3----3-3--3-3-|-3-3-3-3-3-3---5--|
 |-(2)-2--2----2-2--2-2-|-2-2-2-2-2-2---2--|
 |-(0)-0--0----0-0--0-0-|-0-0-0-0-0-0---2--|
 |-(0)-0--0----0-0--0-0-|-0-0-0-0-0-0---0--|
 |----------------------|------------------|

[+E] [E] [E] [E] [E] [E] [E] [E] [E] [E] [E] [E] [E] [E] [E] [E]  
 
 |----------------------|-----------------|
 |----------------------|-----------------|
 |----------------------|-----------------|
 |-------11-11-9-9\-----|---------6-6-7---|
 |-(0)-0------------4-4-|-5-5-7-7-------0-|
 |----------------------|-----------------|

|
| +E E Q E E E E E E E E E E E E
 
 |----------------------|-----------------|
 |-(5)-5--5----5-5--5-5-|-5-5-5-5-5-5---5-|
 |-(2)-2--2----2-2--2-2-|-2-2-2-2-2-2---2-|
 |-(2)-2--2----2-2--2-2-|-2-2-2-2-2-2---2-|
 |-(0)-0--0----0-0--0-0-|-0-0-0-0-0-0---0-|
 |----------------------|-----------------|

[Dsus2/A] 
[+E] [E] [E] [E] [E] [E] [E] [E] [E] [E] [E] [E] [E] [E] [E] [E]  
 
 |----------------------|------------------|
 |----------------------|------------------|
 |----------------------|------------------|
 |-------11-11-9-9\-----|---------6-6-7-0--|
 |-(0)-0------------4-4-|-5-5-7-7----------|
 |----------------------|------------------|

|
| +E E Q E E E E E E E E E E E E
 
 |----------------------|---------------0--|
 |-(5)-5--5----5-5--5-5-|-5-5-5-5-5-5---3--|
 |-(2)-2--2----2-2--2-2-|-2-2-2-2-2-2---2--|
 |-(2)-2--2----2-2--2-2-|-2-2-2-2-2-2---0--|
 |-(0)-0--0----0-0--0-0-|-0-0-0-0-0-0---0--|
 |----------------------|------------------|

[+E] [E] [E] [E] [E] [E] [E] [E] [E] [E] [E] [E] [E] [E] [E] [E]  
 
 |----------------------|-----------------|
 |----------------------|-----------------|
 |----------------------|-----------------|
 |-(0)-0-11-11-9-9\-----|---------6-6-7-0-|
 |------------------4-4-|-5-5-7-7---------|
 |----------------------|-----------------|

|
| +E E Q E E E E E E E E E E E E
 
 |-(0)-0--0----0-0--0-0-|-0-0-0-0-0-0---0-|
 |-(3)-3--3----3-3--3-3-|-3-3-3-3-3-3---3-|
 |-(2)-2--2----2-2--2-2-|-2-2-2-2-2-2---2-|
 |-(0)-0--0----0-0--0-0-|-0-0-0-0-0-0---0-|
 |-(0)-0--0----0-0--0-0-|-0-0-0-0-0-0---0-|
 |----------------------|-----------------|

+E E E E E E E E E E E E E E Q
 
 |-----------------------|--------------------||
 |-----------------------|--------------------||
 |-----------------------|-9-9----------------||
 |-(0)-0-11-11-9-9-11-11-|-----11-11-9-9-11---||
 |-----------------------|--------------------||
 |-----------------------|--------------------||

|
| +E E Q E E E E E E E E E E Q
 
 |-(0)-0--0----0-0--0--0-|-0-0--0--0-0-0--0---||
 |-(3)-3--3----3-3--3--3-|-3-3--3--3-3-3--3---||
 |-(2)-2--2----2-2--2--2-|-2-2--2--2-2-2--2---||
 |-(0)-0--0----0-0--0--0-|-0-0--0--0-0-0--0---||
 |-(0)-0--0----0-0--0--0-|-0-0--0--0-0-0--0---||
 |-----------------------|--------------------||

Verse 1
[A5]Gtrs II, III[Dsus2] [F#m7] [Bm7add4] [Esus4]
Wx2 Wx2 Wx2 W W
 
 |------------|------------|------------|----------|------|
 |------------|------------|------------|----------|------|
 |------------|------------|------------|----------|------|
 |------------|------------|------------|----------|------|
 |------------|------------|------------|----------|------|
 |------------|------------|------------|----------|------|

$
[A5] [D5]  
 
 PM--------------------------------------------------------------|

Q E E E E E E E E E E E E E E E E E E E E E E E E E E E E E E
 
 |----------------|-----------------|-----------------|------------------|
 |----------------|-----------------|-----------------|------------------|
 |----------------|-----------------|-----------------|------------------|
 |-7--------------|-----------------|-7-7-7-7-7-7-7-7-|-7-7-7-7-7-7-7----|
 |-7--7-7-7-7-7-7-|-7-7-7-7-7-7-7-7-|-5-5-5-5-5-5-5-5-|-5-5-5-5-5-5-5----|
 |-5--5-5-5-5-5-5-|-5-5-5-5-5-5-5-5-|-----------------|---------------0--|

[F#m7] [Bm7add4] [Esus4]  
 
 PM------------------------------------------------------------------|

[E] [E] [E] [E] [E] [E] [E] [E] [E] [E] [E] [E] [E] [E] [E] [E] [E] [E] [E] [E] [E] [E] [E] [E] [E] [E] [E] [E] [E] [E] [E] [E]  
 
 |-----------------|-----------------|-----------------|------------------||
 |-----------------|-----------------|-----------------|------------------||
 |-----------------|-----------------|-----------------|------------------||
 |-----------------|-----------------|-4-4-4-4-4-4-4-4-|------------------||
 |-4-4-4-4-4-4-4-4-|-4-4-4-4-4-4-4---|-2-2-2-2-2-2-2-2-|-2-2-2-2-2-2-2----||
 |-2-2-2-2-2-2-2-2-|-2-2-2-2-2-2-2-0-|-----------------|-0-0-0-0-0-0-0-0--||

Chorus
[A/C#]Gtrs II, III[D5] [A5] [E]
Q Q E E E E Q Q E E E E Q Q E E E E Q Q E E E E
 
 |---------------|---------------|-----------0-0-|-0--0--0-0-0-0--|
 |---------------|---------------|-----------0-0-|-0--0--0-0-0-0--|
 |-6--6--6-6-6-6-|-7--7--7-7-7-7-|-----------x---|-4--1--1-1-1-1--|
 |-7--7--7-7-7-7-|-7--7--7-7-7-7-|-7--7--7-7-7---|-2--2--2-2-2-2--|
 |-4--4--4-4-4-4-|-5--5--5-5-5-5-|-7--7--7-7-7---|-2--2--2-2-2-2--|
 |---------------|---------------|-5--5--5-5-5---|-0--0--0-0-0-0--|

To Coda
[A/C#]Q Q E E E E [D5]Q Q E E E E [A5]Q Q E E E E [E]Q Q Q Q
 
 |---------------|---------------|-----------0-0-|-0--0--0--0---|
 |---------------|---------------|-----------0-0-|-0--0--0--0---|
 |-6--6--6-6-6-6-|-7--7--7-7-7-7-|-----------x---|-4--1--1--1---|
 |-7--7--7-7-7-7-|-7--7--7-7-7-7-|-7--7--7-7-7---|-2--2--2--2---|
 |-4--4--4-4-4-4-|-5--5--5-5-5-5-|-7--7--7-7-7---|-2--2--2--2---|
 |---------------|---------------|-5--5--5-5-5---|-0--0--0--0---|

[F#5] [G5] [D5]  
 
 PM------------------------------------------------|

[E] [E] [E] [E] [E] [E] [E] [E] [E] [E] [E] [E] [E] [E] [E] [E] [E] [E] [E] [E] [E] [E] [E] [E]  
 
 |-----------------|-----------------|------------------|
 |-----------------|-----------------|------------------|
 |-----------------|-----------------|------------------|
 |-----------------|-----------------|-7-7-7-7-7-7-7-7S=|
 |-4-4-4-4-4-4-4-4-|-5-5-5-5-5-5-5-0-|-5-5-5-5-5-5-5-5S=|
 |-2-2-2-2-2-2-2-2-|-3-3-3-3-3-3-3-0-|------------------|

[E5] [D5]  
[2/4]  
 
 PM----------------------------------------|

[E] [E] [E] [E] [E] [E] [E] [E] [E] [E] [E] [E] [E] [E] [E] [E] [E] [E] [E] [E]  
 
 |-----------------|-----------------|---------||
 |-----------------|-----------------|---------||
 |-----------------|-----------------|---------||
 |-9-9-9-9-9-9-9-9S|=7-7-7-7-7-7-7-7-|-7-7-7-7-||
 |-7-7-7-7-7-7-7-7S|=5-5-5-5-5-5-5-5-|-5-5-5-5-||
 |-----------------|-----------------|---------||

Verse 2
[D5] [A5] [Dsus2] 
[4/4] Gtrs II, III
 
 PM----------------------------------------------------------|

E E Q E E E E E E E E E E E E E E E E E E E E E E E E E E E E
 
 |----------------|-----------------|-----------------|-----------------|
 |----------------|-----------------|-----------------|-----------------|
 |----------------|-----------------|-----------------|-----------------|
 |-7-7-7----------|-----------------|-7-7-7-7-7-7-7-7-|-7-7-7-7-7-7-7---|
 |-5-5-7--7-7-7-7-|-7-7-7-7-7-7-7-7-|-5-5-5-5-5-5-5-5-|-5-5-5-5-5-5-5---|
 |-----5--5-5-5-5-|-5-5-5-5-5-5-5-5-|-----------------|---------------0-|

[F#m7]Gtrs II, III[Bm7add4] [Esus4]
 
 PM----------------------------------------------------------------|

[E] [E] [E] [E] [E] [E] [E] [E] [E] [E] [E] [E] [E] [E] [E] [E] [E] [E] [E] [E] [E] [E] [E] [E] [E] [E] [E] [E] [E] [E] [E] [E]  
 
 |-----------------|-----------------|-----------------|------------------||
 |-----------------|-----------------|-----------------|---------------5--||
 |-----------------|-----------------|-----------------|---------------2--||
 |-----------------|-----------------|-4-4-4-4-4-4-4-4-|---------------2--||
 |-4-4-4-4-4-4-4-4-|-4-4-4-4-4-4-4---|-2-2-2-2-2-2-2-2-|-2-2-2-2-2-2-2-0--||
 |-2-2-2-2-2-2-2-2-|-2-2-2-2-2-2-2-0-|-----------------|-0-0-0-0-0-0-0----||

|
| Gtr I
| W W W H Q E E
 
 |-----------------|-----------------|-----------------|------------------||
 |-----------------|-----------------|-----------------|------------------||
 |-----------------|-----------------|-----------------|------------------||
 |-----------------|-----------------|-----------------|------------------||
 |-----------------|-----------------|-----------------|---------------0--||
 |-----------------|-----------------|-----------------|------------------||

Interlude
Gtrs II, III
+E E Q E E E E E E E E E E E E
 
 |----------------------|-----------------|
 |-(5)-5--5----5-5--5-5-|-5-5-5-5-5-5---5-|
 |-(2)-2--2----2-2--2-2-|-2-2-2-2-2-2---2-|
 |-(2)-2--2----2-2--2-2-|-2-2-2-2-2-2---2-|
 |-(0)-0--0----0-0--0-0-|-0-0-0-0-0-0---0-|
 |----------------------|-----------------|

|
| Gtr I
| +E E E E E E E E E E E E E E E E
 
 |----------------------|-----------------|
 |----------------------|-----------------|
 |----------------------|-----------------|
 |-------11-11-9-9\-----|---------6-6-7---|
 |-(0)-0------------4-4-|-5-5-7-7-------0-|
 |----------------------|-----------------|

+E E Q E E E E E E E E E E E [Dsus2/A]E
 
 |----------------------|---------------0--|
 |-(5)-5--5----5-5--5-5-|-5-5-5-5-5-5---3--|
 |-(2)-2--2----2-2--2-2-|-2-2-2-2-2-2---2--|
 |-(2)-2--2----2-2--2-2-|-2-2-2-2-2-2---0--|
 |-(0)-0--0----0-0--0-0-|-0-0-0-0-0-0---0--|
 |----------------------|------------------|

|
| +E E E E E E E E E E E E E E E E
 
 |----------------------|------------------|
 |----------------------|------------------|
 |----------------------|------------------|
 |-------11-11-9-9\-----|---------6-6-7-0--|
 |-(0)-0------------4-4-|-5-5-7-7----------|
 |----------------------|------------------|

+E E Q E E E E E E E E E E E E
 
 |-(0)-0--0----0-0--0-0-|-0-0-0-0-0-0---0-|
 |-(3)-3--3----3-3--3-3-|-3-3-3-3-3-3---3-|
 |-(2)-2--2----2-2--2-2-|-2-2-2-2-2-2---2-|
 |-(0)-0--0----0-0--0-0-|-0-0-0-0-0-0---0-|
 |-(0)-0--0----0-0--0-0-|-0-0-0-0-0-0---0-|
 |----------------------|-----------------|

|
| +E E E E E E E E E E E E E E E E
 
 |----------------------|-----------------|
 |----------------------|-----------------|
 |----------------------|-----------------|
 |-(0)-0-11-11-9-9\-----|---------6-6-7-0-|
 |------------------4-4-|-5-5-7-7---------|
 |----------------------|-----------------|

( Tab from: http://www.guitartabs.cc/tabs/r/relient_k/this_week_the_trend_tab_ver_3.html )
D.S. al Coda
+E E Q E E E E E E E E E E Q
 
 |-(0)-0--0----0-0--0--0-|-0-0--0--0-0-0--0---||
 |-(3)-3--3----3-3--3--3-|-3-3--3--3-3-3--3---||
 |-(2)-2--2----2-2--2--2-|-2-2--2--2-2-2--2---||
 |-(0)-0--0----0-0--0--0-|-0-0--0--0-0-0--0---||
 |-(0)-0--0----0-0--0--0-|-0-0--0--0-0-0--0---||
 |-----------------------|--------------------||

|
| +E E E E E E E E E E E E E E Q
 
 |-----------------------|--------------------||
 |-----------------------|--------------------||
 |-----------------------|-9-9----------------||
 |-(0)-0-11-11-9-9-11-11-|-----11-11-9-9-11---||
 |-----------------------|--------------------||
 |-----------------------|--------------------||

&
[F#5]Gtrs II, III[G5] [D5]
 
 PM------------------------------------------------|

[E] [E] [E] [E] [E] [E] [E] [E] [E] [E] [E] [E] [E] [E] [E] [E] [E] [E] [E] [E] [E] [E] [E] [E]  
 
 |-----------------|-----------------|-----------------|
 |-----------------|-----------------|-----------------|
 |-----------------|-----------------|-----------------|
 |-----------------|-----------------|-7-7-7-7-7-7-7-7-|
 |-4-4-4-4-4-4-4-4-|-5-5-5-5-5-5-5-0-|-5-5-5-5-5-5-5-5-|
 |-2-2-2-2-2-2-2-2-|-3-3-3-3-3-3-3-0-|-----------------|

[E5]Gtrs II, III[D5] [A5]
 
 PM----------------------------------------------|

[E] [E] [E] [E] [E] [E] [E] [E] [E] [E] [E] [E] [E] [E] [E] [E] [E] [E] [E] [E] [E] [E] [E] [E]  
 
 |-----------------|-----------------|-----------------||
 |-----------------|-----------------|---------------5-||
 |-----------------|-----------------|---------------2-||
 |-9-9-9-9-9-9-9-9-|-7-7-7-7-7-7-7-7-|-7-7-7-7-7-7-7-2-||
 |-7-7-7-7-7-7-7-7-|-5-5-5-5-5-5-5-5-|-5-5-5-5-5-5-5-0-||
 |-----------------|-----------------|-----------------||

|
| Gtr I
| W W H Q E E
 
 |-----------------|-----------------|-----------------||
 |-----------------|-----------------|-----------------||
 |-----------------|-----------------|-----------------||
 |-----------------|-----------------|-----------------||
 |-----------------|-----------------|---------------0-||
 |-----------------|-----------------|-----------------||

Interlude
Gtrs II, III[D5/A]
+Q Q E E E E E E E E E E E E
 
 |----------------------|-----------------|
 |-(5)----5----5-5--5-5-|-5-5-5-5-5-5---3-|
 |-(2)----2----2-2--2-2-|-2-2-2-2-2-2---2-|
 |-(2)----2----2-2--2-2-|-2-2-2-2-2-2---0-|
 |-(0)----0----0-0--0-0-|-0-0-0-0-0-0---0-|
 |----------------------|-----------------|

|
| Gtr I
| +E E E E E E E E E E E E E E E E
 
 |----------------------|-----------------|
 |----------------------|-----------------|
 |----------------------|-----------------|
 |-------11-11-9-9\-----|---------6-6-7-0-|
 |-(0)-0------------4-4-|-5-5-7-7---------|
 |----------------------|-----------------|

+E E Q E E E E E E E E E E E [F#5]E
 
 |----------------------|------------------|
 |-(3)-3--3----3-3--3-3-|-3-3-3-3-3-3------|
 |-(2)-2--2----2-2--2-2-|-2-2-2-2-2-2------|
 |-(0)-0--0----0-0--0-0-|-0-0-0-0-0-0---4--|
 |-(0)-0--0----0-0--0-0-|-0-0-0-0-0-0---4--|
 |----------------------|---------------2--|

|
| +E E E E E E E E E E E E E E E E
 
 |----------------------|------------------|
 |----------------------|------------------|
 |----------------------|------------------|
 |-(0)-0-11-11-9-9\-----|---------6-6-7----|
 |------------------4-4-|-5-5-7-7-------9--|
 |----------------------|------------------|

+E E Q E E E E E E E E E E E [B5]E +E E Q E E E E
 
 |-------------------|-----------------|-------------------|
 |-------------------|-----------------|-------------------|
 |-------------------|---------------4-|-(4)-4-4---4-4-4-4-|
 |-(4)-4-4---4-4-4-4-|-4-4-4-4-4-4---4-|-(4)-4-4---4-4-4-4-|
 |-(4)-4-4---4-4-4-4-|-4-4-4-4-4-4---2-|-(2)-2-2---2-2-2-2-|
 |-(2)-2-2---2-2-2-2-|-2-2-2-2-2-2-----|-------------------|

|
| +E E E E E E E E E E E E E E E E +E E E E E E E E
 
 |-------------------|-----------------|-------------------|
 |-------------------|-----------------|-------------------|
 |-------6-6-9-9-6-6-|-7-7-6-6-----6-9-|-(9)-9-6-6-----6-6-|
 |-------------------|---------9-9-----|-----------9-9-----|
 |-(9)-9-------------|-----------------|-------------------|
 |-------------------|-----------------|-------------------|

[E5]E E E E E E E E [A5] W +W
 
 |------------------|------------|--------||
 |------------------|------------|--------||
 |------------------|--2---------|-(2)----||
 |-2-2-2-2-2-2--2-2-|--2---------|-(2)----||
 |-2-2-2-2-2-2--2-2-|--0---------|-(0)----||
 |-0-0-0-0-0-0--0-0-|------------|--------||

|
| ~~~~~~~~~~~~~~~~
| E E E E E Q. W +W
 
 |------------------|------------|--------||
 |------------------|------------|--------||
 |-----6------------|------------|--------||
 |-9-9---9---6------|-[7]--------|-(7)----||
 |------------------|------------|--------||
 |------------------|------------|--------||

Bridge
[D5]Gtr IV[A5] [E5] [B5]
W W W W
 
 |----------|----------|----------|------|
 |----------|----------|----------|------|
 |----------|----------|----------|------|
 |----------|----------|----------|------|
 |----------|----------|----------|------|
 |----------|----------|----------|------|

[D5]Gtr IV[A5] [E5] [B5]
<
W H H +W +W
 
 |----------|-------------|------------|-------------|
 |----------|-------------|------------|-------------|
 |----------|-------------|------------|-------------|
 |----------|------[7]----|-(7)--------|-(7)---------|
 |----------|-------------|------------|-------------|
 |----------|-------------|------------|-------------|

|
| Gtr V
| <
| W W W Q +H.
 
 |----------|-------------|------------|-------------|
 |----------|-------------|------------|-------------|
 |----------|-------------|------------|-------------|
 |----------|-------------|------------|-------------|
 |----------|-------------|------------|--7---(7)----|
 |----------|-------------|------------|-------------|

[Dmaj7]Gtr IV[A] [Em7] [Bsus4]
[+B] [E] [E] [E] [E] [E] [E] [E] [E] [E] [E] [E] [E] [E] [E] [E] [E] [E] [E] [E] [E] [E] [E] [E] [E] [E] [E] [E] [E]  
 
 |-------------------|-----------------|-----------------|------------------|
 |-------------------|-----------------|-----------------|------------------|
 |-----------6-6-6-6-|-6-6-6-6-6-6-6-6-|-7-7-7-7-7-7-7-7-|-9-9-9-9-9-9-9-9--|
 |-(7)---------------|-----------------|-----------------|------------------|
 |-------------------|-----------------|-----------------|------------------|
 |-------------------|-----------------|-----------------|------------------|

|
| Gtr V
| +W E E E E E E E E E E E E E E E E E E E E E E E E
 
 |-------------------|-----------------|-----------------|------------------|
 |-------------------|-----------------|-----------------|------------------|
 |-------------------|-----------------|-----------------|------------------|
 |-------------------|-7-7-7-7-7-7-7-7-|-9-9-9-9-9-9-9-9-|-9-9-9-9-9-9-9-9--|
 |-(7)---------------|-----------------|-----------------|------------------|
 |-------------------|-----------------|-----------------|------------------|

|
| Gtrs II, III
 
 | PM-------------------------------------------------------------------|

| E E E E E E E E E E E E E E E E E E E E E E E E E E E E E E E E
 
 |-------------------|-----------------|-----------------|------------------|
 |-------------------|-----------------|-----------------|------------------|
 |-------------------|-----------------|-----------------|------------------|
 |-------------------|-----------------|-----------------|------------------|
 |--5--5-5-5-5-5-5-5-|-----------------|-7-7-7-7-7-7-7-7-|------------------|
 |-------------------|-5-5-5-5-5-5-5-5-|-----------------|-7-7-7-7-7-7-7-7--|

[Dmaj7] [A]  
[E] [E] [E] [E] [E] [E] [E] [E] [E] [E] [E] [E] [E] [E] [E] [E]  
 
 |-------------------------|-------------------------|
 |-------------------------|-------------------------|
 |--9--9--9--9--9--9--9--9-|--9--9--9--9--9--9--9--9S|
 |-------------------------|-------------------------|
 |-------------------------|-------------------------|
 |-------------------------|-------------------------|

|
| E E E E E E E E E E E E E E E E
 
 |-------------------------|-------------------------|
 |-------------------------|-------------------------|
 |-------------------------|-------------------------|
 |-11-11-11-11-11-11-11-11-|-11-11-11-11-11-11-11-11S|
 |-------------------------|-------------------------|
 |-------------------------|-------------------------|

|
 
 | PM------------------------------------------------

| E E E E E E E E E E E E E E E E
 
 |-------------------------|-------------------------|
 |-------------------------|-------------------------|
 |-------------------------|-------------------------|
 |-------------------------|-------------------------|
 |--5--5--5--5--5--5--5--5-|-------------------------|
 |-------------------------|--5--5--5--5--5--5--5--5-|

[E] [Bsus4]  
[E] [E] [E] [E] [E] [E] [E] [E] [E] [E] [E] [E] [E] [E] [E] [E]  
 
 |-------------------------|--------------------------|
 |-------------------------|--------------------------|
 |-13-13-13-13-13-13-13-13-|-13-13-13-13-13-13-13-13--|
 |-------------------------|--------------------------|
 |-------------------------|--------------------------|
 |-------------------------|--------------------------|

|
| E E E E E E E E E E E E E E E E
 
 |-------------------------|--------------------------|
 |-------------------------|--------------------------|
 |-------------------------|--------------------------|
 |-14-14-14-14-14-14-14-14-|-14-14-14-14-14-14-14-14--|
 |-------------------------|--------------------------|
 |-------------------------|--------------------------|

|
 
 |------------------------------------------------|

| E E E E E E E E E E E E E E E E
 
 |-------------------------|--------------------------|
 |-------------------------|--------------------------|
 |-------------------------|--------------------------|
 |-------------------------|--------------------------|
 |--7--7--7--7--7--7--7--7-|--------------------------|
 |-------------------------|--7--7--7--7--7--7--7--7--|

[D5] [Dsus2]  
[E] [E] [E] [E] [E] [E] [E] [E] [E] [E] [E] [E] [E] [E] [E] [E]  
 
 |-------------------------|-------------------------|
 |-------------------------|-14-14-14-14-14-14-14-14-|
 |-14-14-14-14-14-14-14-14-|-------------------------|
 |-------------------------|-------------------------|
 |-------------------------|-------------------------|
 |-------------------------|-------------------------|

|
| E E E E E E E E E E E E E E E E
 
 |-------------------------|-------------------------|
 |-------------------------|-------------------------|
 |-------------------------|-------------------------|
 |-12-12-12-12-12-12-12-12-|-14-14-14-14-14-14-14-14-|
 |-------------------------|-------------------------|
 |-------------------------|-------------------------|

|
 
 | PM------------------------------------------------

| E E E E E E E E E E E E E E E E
 
 |-------------------------|-------------------------|
 |-------------------------|-------------------------|
 |-------------------------|-------------------------|
 |-------------------------|-------------------------|
 |--5--5--5--5--5--5--5--5-|--5--5--5--5--5--5--5--5-|
 |-------------------------|-------------------------|

[D] E E E E E E E E [Dsus4] E E E E E E Q[A5]
 
 |-------------------------|-------------------------||
 |-14-14-14-14-14-14-14-14-|-/17-17-17-17-17-17------||
 |-------------------------|-------------------------||
 |-------------------------|-------------------------||
 |-------------------------|-------------------------||
 |-------------------------|-------------------------||

|
| E E E E E E E E E E E E E E Q
 
 |-------------------------|-------------------------||
 |-------------------------|-------------------------||
 |-------------------------|--13-13-13-13-13-13------||
 |-16-16-16-16-16-16-16-16-|-------------------------||
 |-------------------------|-------------------------||
 |-------------------------|-------------------------||

|
 
 |-------------------------------------|

| E E E E E E E E E E E E E E E E
 
 |-------------------------|-------------------------||
 |-------------------------|-------------------------||
 |-------------------------|---------------7--7------||
 |-------------------------|---------------7--7---7--||
 |--5--5--5--5--5--5--5--5-|---5--5--5--5--5--5---7--||
 |-------------------------|----------------------5--||

Outro
1.,2.,3. 4.
Gtrs II, III
+E E Q E E Q E E E E E E E E E E E E E E E E
 
 ||------------------|------------------||-----------------|
 ||o-----------------|-----------------o||-----------------|
 ||------------------|------------------||-----------------|
 ||--(7)-7-7--7-7-7--|-7-7-7-7-7-7---7--||-7-7-7-7-7-7-7-7-|
 ||o-(7)-7-7--7-7-7--|-7-7-7-7-7-7---7-o||-7-7-7-7-7-7-7-7-|
 ||--(5)-5-5--5-5-5--|-5-5-5-5-5-5---5--||-5-5-5-5-5-5-5-5-|

E E Q E E E E E E E E E E E E
 
 ||---------------------|-----------------|
 ||o--------------------|-----------------|
 ||---------------------|-----------------|
 ||----------7--7-7-7-7-|-7-7-7-7-7-7-7-7-|
 ||o---7--7-7-7-7-|-7-7-7-7-7-7-7-7-|
 ||----5--5-5-5-5-|-5-5-5-5-5-5-5-5-|

E E Q E E E E E E E E E E E E
 
 |--------------------|------------------||
 |--------------------|-----------------o||
 |--------------------|------------------||
 |---------7--7-7-7-7-|-7-7-7-7-7-7-7-7--||
 |---7--7-7-7-7-|-7-7-7-7-7-7-7-7-o||
 |---5--5-5-5-5-|-5-5-5-5-5-5-5-5--||

Duration Legend
 
 ---------------
 W - whole; H - half; Q - quarter; E - 8th; S - 16th; T - 32nd; X - 64th; a - acciaccatura

+ - note tied to previous; . - note dotted; .. - note double dotted
Uncapitalized letters represent notes that are staccato (1/2 duration)
Irregular groupings are notated above the duration line
Duration letters will always appear directly above the note/fret number it represents the
duration for. Duration letters with no fret number below them represent rests. Multi-
bar rests are notated in the form Wxn, where n is the number of bars to rest for. Low
melody durations appear below the staff
Tablature Legend
 
 ----------------

h - hammer-on
p - pull-off
b - bend
pb - pre-bend
r - bend release (if no number after the r, then release immediately)
/\ - slide into or out of (from/to "nowhere")
s - legato slide
S - shift slide
- natural harmonic
(n) - artificial harmonic
n(n) - tapped harmonic
~ - vibrato
tr - trill
T - tap
TP - trem. picking
PM - palm muting
\n/ - tremolo bar dip; n = amount to dip
\n - tremolo bar down
n/ - tremolo bar up
/n\ - tremolo bar inverted dip
= - hold bend; also acts as connecting device for hammers/pulls
- volume swell (louder/softer)
x - on rhythm slash represents muted slash
o - on rhythm slash represents single note slash
Misc Legend
 
 -----------

| - bar
|| - double bar
||o - repeat start
o|| - repeat end
*| - double bar (ending)
: - bar (freetime)
$ - Segno
& - Coda
Tempo markers - = BPM(8/16=s8/s16), where s8 = swing 8ths, s16 = swing 16ths
***************************************************************************************
* Generated using Power Tab Editor by Brad Larsen - http://powertab.guitarnetwork.org *
***************************************************************************************

Important: The song above is NOT stored on the Chordie server. The original song is hosted at www.guitartabs.cc. Chordie works as a search engine and provides on-the-fly formatting. Chordie does not index songs against artists'/composers' will. To remove this song please click here.

Text color:
Chord color:
Chord grids: 
Font size:    
Page size: 

A A/C# A5 B5 Bm7add4 Bsus4 D D5 D5/A Dmaj7 Dsus2 Dsus2/A Dsus4 E E5 Em7 Esus4 F#5 F#m7 G5
Rate #1 of 3 versions

Login - add to songbook

SHARE PAGE  




You need to log in to post comments