Guitar Tabs, Chords and Lyrics
Server problems seems to be fixed. Chordie has been experiencing problems with songs disappearing. These issues now seems to be fixed, but still verifying the fix. If you find anything strange, please email admin@chordie.com.


What Have You Been Doing Lately?   Relient K

 
 E -----------------------------------------------
 B ----------------------------------------------
 G ---14--14--14--14--14--------------------
 D ---14--14--14--14--14--------------------
 A ---12--12--12--12--12--------------------
 E ----------------------------------------------

 


 


 What have you been doin' latelyâ?¦.


 


 Listen to the song to get the rhythm. These are just the basic notes


 


 

 
 E -----------------------------------
 B -----------------------------------
 G ---------7-------9----------------
 D ----9---7---5---9----------------
 A ----9---5---5---7----------------
 E ----7--------3--------------------

 


 


 The intro. is also the chorus. It has the big mad bass-descending riff! (Listen to the song to know what I mean)


 


 Verse


 

 
 E --------------------------------------------------
 B --------------------------------------------------
 G ---------------9-x-x-x-x-x-7-x-x-x-x-x------------
 D ---7-x-x-x-x-x-9-x-x-x-x-x-7-x-x-x-x-x------------
 A ---7-x-x-x-x-x-7-x-x-x-x-x-5-x-x-x-x-x------------
 E ---5-x-x-x-x-x------------------------------------ x4

 


 


 When I saw Justin he said he was just inâ?¦..


 


 I've tried to include all the palm mutes, but again, check out the song.


 


 Bridge


 

 
 E ---------------------------------------------------------------------
 B ---------------------------------------------------------------------
 G --7-x-x-x-x-x-x-9-x-x-x-x-x-x-11-x-x-x-x-x-x-14-x-x-x-x-x-x-7--------
 D --7-x-x-x-x-x-x-9-x-x-x-x-x-x-11-x-x-x-x-x-x-14-x-x-x-x-x-x-7--------
 A --5-x-x-x-x-x-x-7-x-x-x-x-x-x--9-x-x-x-x-x-x-12-x-x-x-x-x-x-5--------
 E --------------------------------------------------------------------- x4

 


 Let last note ring on the last time


 


 Pardon me while I throw up I guess some people never grow upâ?¦.


 


 


 Main riff


 


 (Very heavy)


 

 
 E --------------------------------------------------------------------------
 B --------------------------------------------------------------------------
 G -------------7-7-7-7------------------------------------------------------
 D -7-7-7-7-7-7-7-7-7-7-7-7-7-7---7-7-7-7--7-7----[4-4-4-4-4-4-4-4-4---2]----
 A -7-7-7-7-7-7-5-5-5-5-7-7-7-7---7-7-7-7--7-7----[4-4-4-4-4-4-4-4-4---2]----
 E -5-5-5-5-5-5---------4-4-4-4---5-5-5-5--5-4----[2-2-2-2-2-2-2-2-2---0]----


Important: The song above is NOT stored on the Chordie server. The original song is hosted at www.guitartabs.cc. Chordie works as a search engine and provides on-the-fly formatting. Chordie does not index songs against artists'/composers' will. To remove this song please click here.

This song is displayed as text-only. Transposing and tuning is only available for chordpro-songs.
Rate #1 of 2 versions

Login - add to songbook

SHARE PAGE  




You need to log in to post comments