Guitar Tabs, Chords and Lyrics
Major upgrade!! After one year development the new version of Chordie is now online! Please give feedback.


Losing My Religion  R.E.M.

F xx3211 Em 022000
Fsus2 xx3011 Em(II) x79987
G 320033 Ebm x68876
Am x02210 C x32010
Am(II) xxx210 Dm xx0231
 
 -10-12-10----
 ----------10-
 -------------
 -------------
 -------------
 -------------

[F] [/] [F] [F] [Fsus2] [/] [F] [/] [F] [/] [F] [G] [G] [G]  
 
 |-1-----------1---1---1-------1-|-----1-------1---3-------3---3-|
 |-1-----------1---1---1-------1-|-----1-------1---3-------3---3-|
 |-2-----------2---2---0-------2-|-----2-------2---0-------0---0-|
 |-3-----------3---3---3-------3-|-----3-------3---0-------0---0-|
 |-------------------------------|-----------------2-------2---2-|
 |-------------------------------|-----------------3-------3---3-|

Am AmII AmII AmII AmII AmII
 
 |-0-----------0---------------0-|-------------0-------0---0-----|
 |-1-----------1---------------1-|-------------1-------1---1-----|
 |-2-----------2---------------2-|-------------2-------2---2-----|
 |-2-----------------------------|-------------------------------|
 |-0-----------------------------|-------------------------------|
 |-------------------------------|-------------------------------|

[F] [/] [F] [F] [Fsus2] [F] [/] [F] [F] [G] [G] [Am]  
 
 |-1-----------1---1---1-------1-|-----1-------1---3-------3---0-|
 |-1-----------1---1---1-------1-|-----1-------1---3-------3---1-|
 |-2-----------2---2---0-------2-|-----2-------2---0-------0---2-|
 |-3-----------3---3---3-------3-|-----3-------3---0-------0---2-|
 |-------------------------------|-----------------2-------2---0-|
 |-------------------------------|-----------------3-------3-----|

[Am] [Am] [Am] [Am] [G]  
 
 |-0-------0-------0---0-------3-|
 |-2-------2-------2---2-------3-|
 |-2-------2-------2---2-------0-|
 |-1-------1-------1---1-------0-|
 |-0-------0-------0---0-------2-|
 |-----------------------------3-|

Oh life [Am] ...[Em]
And ...[Am] [Em]
The ...[Am]
Em Em(II) Ebm Dm G
Oh no, ...
That's ..[Am] [Em]
Losing ..[Am] [Em]
And I [Am]..
Em Em(II) Ebm Dm G
Oh no, ...
I ...[F] [Fsus2]
F G Am Am(II)
I ...
I [F]...[Fsus2] [F] [G] [Am]
[G] Every ..[Am]
Every ...[Em] [Am]
Trying ...[Em]
Like a [Am]...
[Em] Oh ...[Dm] [G]
Consider ...[Am] [Em]
Consider ...[Am] [Em]
[Am]What if ...[Em]
Em(II) Dm G
Now ...
I ...[F] [Fsus2]
F G Am Am(II)
I ...
I [F]...[Fsus2] [F] [G] [Am] [G]
 
 -----12--12--12--10--10--10--10--10--8--8--8--5--5--5--5--5-----------------
 ----------------------------------------------------------------------------
 ----------------------------------------------------------------------------
 ----------------------------------------------------------------------------
 ----------------------------------------------------------------------------
 ----------------------------------------------------------------------------

[C]That ...[Am]
[C] That ...[/] [C] [Am]
That's ...[Em] [Am]
Trying ...[Em] [Am]
Em Em(II) Ebm Dm
Oh no, ...
I ...[G]
I ...[F] [Fsus2]
F G Am Am(II)
I ...
F Fsus2 F G Am(II)
I ..
F Fsus2 F G Am Am(II)
But ...
[F]That ...[Fsus2] [F] [G] [Am] [G] [/]
[Am]v v
 
 |-12-12-12-12-12-12-12-12-|-12-10-------10-------------|
 |-------------------------|-------13-10----13-10-13-10-|
 |-------------------------|----------------------------|
 |-------------------------|----------------------------|
 |-------------------------|----------------------------|
 |-------------------------|----------------------------|

(Play the first measure 7 times)
[-----]  
by shah...
( Tab from: http://www.guitartabs.cc/tabs/r/rem/losing_my_religion_crd.html )

Important: The song above is NOT stored on the Chordie server. The original song is hosted at www.guitartabs.cc. Chordie works as a search engine and provides on-the-fly formatting. Chordie does not index songs against artists'/composers' will. To remove this song please click here.

Text color:
Chord color:
Chord grids: 
Font size:    
Page size: 

Am C Dm Em F Fsus2 G
Rate #1 of 24 versions

Login - add to songbook

SHARE PAGE  



You need to log in to post comments