Guitar Tabs, Chords and Lyrics
Server problems seems to be fixed. Chordie has been experiencing problems with songs disappearing. These issues now seems to be fixed, but still verifying the fix. If you find anything strange, please email admin@chordie.com.


Johnny's Gonna Die  The Replacements

Chords (Paul):
[Fm]0 [Gm]0 [Bb5] - [C5] -
0 0 - -
[2] [4] [3] [5]  
[3] [5] [3] [5]  
[3] [5] [1] [3]  
[1] [3] [-] [-]  
Chords (Bob):
[F5] [G5] [Bb5]  
[-] [-] [-]  
[-] [-] [-]  
[-] [-] [5]  
[3] [5] [5]  
[3] [5] [3]  
[1] [3] [-]  
Lead intro (Bob)
[0:07] [0:11] 
 
 e|-----------------------------------------------------------------------------------------|
 B|-------------------------------------------------------------------------------------|
 G|---10h12?9----------------------------------------------------------10h12?9------|
 D|---------------------------------------------------------------------------------|
 A|---------------------------------------------------------------------------------|
 E|-------------------------------------------------------------------------------------|

[0:22] 
 
 e|----------------------------12-13-15-13-12-13-12-----|
 B|-----------------------------------------------------|
 G|---10h12?9-------------------------------------------|
 D|-----------------------------------------------------|
 A|-----------------------------------------------------|
 E|-----------------------------------------------------|

Rhythm intro (Paul)
It?s pretty much Fm-Gm progression. It?s pretty tricky to tab out but advice to
play it would be to down strum the chords and up strum the open notes.
On occasion Paul will barre the strings. These times can be heard pretty easily
though since there is a lot of muted strumming when he does this.
Verse 1 Rhythm (Paul)
[Fm]Johnny always [Gm]takes m[Fm]ore than he n[Gm]eeds
[Fm]Knows a couple [Gm]chords, [Fm]knows a couple [Gm]leads
Fm-Gm 4xs
[Fm]Johnny always [Gm]needs [Fm]more than he [Gm]takes
[Fm]Forgets a couple of [Gm]chords, [Fm]forgets a couple of [Gm]breaks
[Fm]And everybody tells [Gm]me J[Fm]ohnny is[Gm] hot
[Fm]Johnny needs [Gm]something [Fm]that he ain't [Gm]got
Verse 1 Lead (Bob):
During singing:
F5 G5 [0:32 and 0:36]
 
 e|-----------------------| e|-------------|
 B|-----------------------| B|-------------|
 G|-----------------------| Break( when Paul stops singing: G|---10h12?9---|
 D|---------3--------5----| D|-------------|
 A|------3---------5------| A|-------------|
 E|---1---------3---------| E|-------------|

Chorus 1 Rhythm (Paul):
[Bb5]And Johnny's gonna die[C5]
[Bb5]Johnny's gonna die[C5]
[Bb5]Johnny's gonna die[C5]
Chorus 1 Lead (Bob):
[0:56] and [1:04] [1:00]
 
 e|-------------------------------------------||----------------------------------------------|
 B|-------------------------------------------||-----------------------------/10-10-10--------|
 G|-----10---9-9-9?7-7-7----------------------||---10---9-9-9?7-7-7---------------------------|
 D|-------------------------------7-7-7\------||----------------------------------------------|
 A|-------------------------------------------||----------------------------------------------|
 E|-------------------------------------------||----------------------------------------------|

Verse 2 Rhythm (Paul):
Fm-Gm 8xs
[Fm]Everybody [Gm]stares an[Fm]d everyb[Gm]ody hoots
[Fm]Johnny always[Gm] needs[Fm] more tha[Gm]n he shoots
Fm-Gm 4x?s
[Fm]Standing by a[Gm] beach an[Fm]d there ain't no lake[Gm]
[Fm]He's got friends without n[Gm]o guts,[Fm] friends that n[Gm]ever ache
[Fm]In New York Ci[Gm]ty, I guess i[Fm]t's cool when it's dar[Gm]k
[Fm]There's one sure way [Gm]Johnny you[Fm] can leave your mark[Gm]
Verse 2 Lead (Bob):
F5-G5 from 1st verse during singing
[1:20] [1:24] 
 
 e|----------------------------------13h15-x---12-----|
 B|---------------------------------------------------|
 G|---10h12?9-----------------------------------------|
 D|---------------------------------------------------|
 A|---------------------------------------------------|
 E|---------------------------------------------------|

Chorus 2 Rhythm (Paul):
[Bb5]And Johnny's gonna die[C5]
[Bb5]Johnny's gonna die[C5]
[Bb5]Nahnahnahnahnahnah??[C5]
Chorus 2 Lead (Bob):
[1:44] [1:48} |
 
 e|------------------------------------------||------------------------|
 B|------------------------------------------||------------------------|
 G|----10---9-9-9?7-7-7----------------------||---10---9-9-9?7-7-7-----|
 D|------------------------------7-7-7\------||------------------------|
 A|------------------------------------------||------------------------|
 E|------------------------------------------||------------------------|

[1:52] 
 
 ----------------------||--------------------|
 -----/10-10-10--------||--------------------|
 ----------------------||---10?9?7?9?7-------|
 ----------------------||-----------------7~-|
 ----------------------||--------------------|
 ----------------------||--------------------|

Solo 1 Rhythm (Paul)
Fm-Gm 12x?s
Solo 1 (Bob):
[1:56] 
 
 PM--------------------------------------------------------
 e|-----------------------------------------------------------------10p8h10p8h10p8h10p8-(8xs)---|
 B|---------------------------------------------------------------------------------------------|
 G|---------------------------------------------------------------------------------------------|
 D|---7----7-----7---7---5----5----5------------------------------------------------------------|
 A|-----------------------------------------7---5---7---5/7-------------------------------------|
 E|---------------------------------------------------------------------------------------------|
 E|---12p8h12p8h12p8h12p8h10p8h10p8h10p8h10p8 (2xs)----|
 B|----------------------------------------------------|
 G|----------------------------------------------------|
 D|----------------------------------------------------|
 A|----------------------------------------------------|
 E|----------------------------------------------------|
 E|---12p8h10p8h12-----12p8-------------12p8------------------|
 B|--------------------------10p8-10p8-------10p8h10~---------|
 G|-----------------------------------------------------------|
 D|-----------------------------------------------------------|
 A|-----------------------------------------------------------|
 E|-----------------------------------------------------------|

Solo 2 (Paul): I can?t figure it out at the moment, Will post solo when I figure it out
Solo 2 Rhythm (Bob): starts at [2:20]
F5-G5 14xs
Post-solo (Paul):
[Bb5]Johnny?
[C5]Johnny?
[Bb5]Johnny?
[C5]Johnny?.
Post-Solo (Bob):
[2:44] [2:48] [2:56] 
 
 E|-----------||-------------------------------------||-----------------------|
 B|---10------||---11---11-12-11-12-11-12-11-10------||---11----12------15----|
 G|-----------||-------------------------------------||-----------------------|
 D|-----------||-------------------------------------||-----------------------|
 A|-----------||-------------------------------------||-----------------------|
 E|-----------||-------------------------------------||-----------------------|

Outro (Paul):
Fm-Gm till fade
Outro (Bob):
[3:02] 
 
 E|----------------------13h15?12-----|
 B|-----------------------------------|
 G|---10h12?9-------------------------|
 D|-----------------------------------| Fade
 A|-----------------------------------|
 E|-----------------------------------|


Important: The song above is NOT stored on the Chordie server. The original song is hosted at www.guitartabs.cc. Chordie works as a search engine and provides on-the-fly formatting. Chordie does not index songs against artists'/composers' will. To remove this song please click here.

Text color:
Chord color:
Chord grids: 
Font size:    
Page size: 

Bb5 C5 F5 Fm G5 Gm
Rate #2 of 3 versions

Login - add to songbook

SHARE PAGE  




You need to log in to post comments