Guitar Tabs, Chords and Lyrics
Major upgrade!! After one year development the new version of Chordie is now online! Please give feedback.


Bye Bye Johnny  Return

Bye, Bye Johnny
- Return
Intro
[Em] [B] [Em] [B] [Em] 
 
 -0-------3-----------3-0-2------2----3---5---7-3\----3-0-2---2---0-------3----|
 ---0---0---0---0---------4-4--4-4----0---0---0-------------4-4-4---0---0--0---|
 -----0-------0-----0-----4--4---4----0---0---0-----0---------4-------0------0-|
 -2----------------------------------------------------------------------------|
 -----------------2-------------------------------2----------------------------|
 ------------------------------------------------------------------------------|

[B] [Em] [B] 
 
 -------3-0-2-------2---3---5---7-3\-3-2---------------------------------------|
 -0---------4-4---4-4---0---0---0----5-4---------------------------------------|
 -----0-----4---4---4---0---0---0----4-4---------------------------------------|
 ------------------------------------------------------------------------------|
 ---2--------------------------------------------------------------------------|
 ------------------------------------------------------------------------------|

Vers1
[Em]Yesterday, [Bm]you and me, [D]and the other [Am]people at a [C]party.[G] But [Bm]who could know it
was the last time, [Em]we got drunk and [Bm]sang together. [D]Chasing girls we should have
[Am]lived for ever.[C] You didn`t [G]even get [D]home.
Refreng:
Bye, bye Johnny bye bye, it`s not your fault that you died. But I can help it
I`ve got to ask a reason why you good old Johnny did die, no wonder so many of
your friends cried. Well there`s no meaning why you should say goodbye.
Vers2
Now, today, when you are gone, I`m still drunk but I can`t find a reason, why
you had to leave so soon. Guess that`s so it had to be, raisin hell and living
free. Can`t you come back to us please?
Refreng
Bridge:
You where stabbed, in the back, in her arms down a backstreet alley. You preyed
for pasion with your life, now you`re hiding in the ? (alley?)
Solo:
w/bar
 
 ---------------------------------------------------14-15b1717-17r15-----------|
 -------19-20------------------------------------15------------------17--------|
 -21----------19b21--19b21r19-17-17-16--------14-------------------------------|
 ---------------------------------------21-17----------------------------------|
 ------------------------------------------------------------------------------|
 ------------------------------------------------------------------------------|
 -17b19-17b19------------------------------------------------------------------|
 ------------------------------------------------------------------------------|
 ------------------------------------------------------------------------------|
 ------------------------------------------------------------------------------|
 ------------------------------------------------------------------------------|
 ------------------------------------------------------------------------------|

Refreng x2
Refreng
[G] [B] [A] [G] [D] [C] [G] 
 
 ------------------------------------------------------------------------------|
 ------------------------------------------------------------------------------|
 -----------------4--4--2--2--2--2--2--2--------7--7--5--5--5--5--5--5---------|
 -----------5--5--4--4--2--2--2--2--2--2--5--5--7--7--5--5--5--5--5--5--5--5---|
 -0-2-3-----5--5--2--2--0--0--0--0--0--0--5--5--5--5--3--3--3--3--3--3--5--5---|
 -------0-2-3--3--------------------------3--3--------------------------3--3---|

[B] [A] [G] [D] [E] [C] [G] [C] [D]  
 
 pm----------------------------------|
 -------------------------------------------------------------------------------|
 -------------------------------------------------------------------------------|
 -4--4--2--2--2--2--2--2--------7--7--9--9----------------------5--5-----5--7---|
 -4--4--2--2--2--2--2--2--5--5--7--7--9--9--9-10-7-9----7-------5--5--5--5--7---|
 -2--2--0--0--0--0--0--0--5--5--5--5--7--7-----------10---9-10--3--3--5--3--5---|
 -------------------------3--3----------------------------------------3---------|

Bridge
[E] [G] [A] [D] [E] [G]  
 
 pm----- pm----- pm----- pm------------- pm----- pm-----|
 ------------------------------------------------------------------------------|
 ------------------------------------------------------------------------------|
 ------------------------------------------------------------------------------|
 ------------------2----------5----------7--7-7-7-7-7-7-7-7----------2---------|
 -0-2-3-2--2-2-2-2----5-5-5-5----7-7-7-7----5-5-5-5-5-5-5-5--2-2-2-2----5-5-5--|
 ----------0-0-0-0----3-3-3-3----5-5-5-5---------------------0-0-0-0----3-3-3--|

[B]  
 
 pm pm-----------------------------------------------------------------------|
 -------------------------------------------------------------------------------|
 -------------------------------------------------------------------------------|
 -------------------------------------------------------------------------------|
 ---5--4------------------------------------------------------------------------|
 -5----2------------------------------------------------------------------------|
 -3-----------------------------------------------------------------------------|


Important: The song above is NOT stored on the Chordie server. The original song is hosted at www.guitartabs.cc. Chordie works as a search engine and provides on-the-fly formatting. Chordie does not index songs against artists'/composers' will. To remove this song please click here.

Text color:
Chord color:
Chord grids: 
Font size:    
Page size: 

A Am B Bm C D E Em G
Rate #2 of 4 versions

Login - add to songbook

SHARE PAGE  




You need to log in to post comments