Guitar Tabs, Chords and Lyrics
Major upgrade!! After one year development the new version of Chordie is now online! Please give feedback.


Antukin  Rico Blanco

Tuning: Standard
Do this with Verse:
Guitar 1:
 
 e-------------------------------|----------------|
 b-------------------------------|----------------|
 g-----5----------5---------5----|--55---------55-|
 D---5---5------5---5-----5---5--|-----55---------|
 A-3---------55------------------|---------33-----|
 E----------------------5--------|----------------|

Verse:
(Do CP: C-Dm-Am)
Iniwan ka na ng eroplano
Ok lang baby wag kang magbago
Dito ka lang humiling sa akin piling
Antukin.
Interlude: C-Dm
(Do CP: C-Dm-Am)
Kukupkupin nalang kita, sorry wala ka ng magagawa
Mahalin mo nalang ako sobra-sobra
Para patas na[C]man tayo di[Dm]ba?
Chorus:
Sasalubungin nat[C]in ang k[G]inabuka[Dm]san
Nang Walang t[C]akot at wal[G]ang pang[Dm]amba
Tadhana mer[C]on tip na [G]makapangya[Dm]rihan
[Dm]Kung ayaw may [Am]dahilan,
[Dm----]Kung gusto palaging may paraan
Do this with Verse:
Guitar 1:
 
 e-------------------------------|----------------|
 b-------------------------------|----------------|
 g-----5----------5---------5----|--55---------55-|
 D---5---5------5---5-----5---5--|-----55---------|
 A-3---------55------------------|---------33-----|
 E----------------------5--------|----------------|

Verse:
(Do CP: C-Dm-Am)
Pinaiyak ka ng manghuhula
Di na daw tayong magkasamang tatanda
Buti nalang meron langit na nagtatangol
sa pag-ibig naposigido at matiyaga
Chorus:
( Tab from: http://www.guitartabs.cc/tabs/r/rico_blanco/antukin_crd_ver_3.html )
Sasalubungin nat[C]in ang k[G]inabuka[Dm]san
Nang Walang t[C]akot at wal[G]ang pang[Dm]amba
Tadhana mer[C]on tip na [G]makapangya[Dm]rihan
[Dm]Kung ayaw may [Am]dahilan,
[Dm----]Kung gusto palaging may paraan
[(C-Dm-Am)]Longness,we stand us one,ano man ang ating makabangga aahh,..
Nothing will have break us, wala talaga..as in wala.
Adlib: C-Dm-Am then C-Dm
Chorus:
Sasalubungin nat[C]in ang k[G]inabuka[Dm]san
Nang Walang t[C]akot at wal[G]ang pang[Dm]amba
Tadhana mer[C]on tip na [G]makapangya[Dm]rihan
K[Dm]ung ayaw may dahi[Am]lan,
Kung [Dm]gusto ay hahalikan nalang nat[C]in
ang kinabuk[G]asan ng bu[Dm]ong lo[C]ob at yayakap[G]in pa
Ta[Dm]dhana mej[C]o over-[G]rad[Dm]ed
[Dm]Kung ayaw may dahi[Am]lan,
 
 Dm------------

Kung may gusto palaging may paraan
 
 ------------------------->>>

Gumawa nalang tayo ng paraan
Gumawa nalang tayo ng paraan
Intro:
Guitar 1:
 
 e-------------------------------|----------------|
 b-------------------------------|----------------|
 g-----5----------5---------5----|--55---------55-|
 D---5---5------5---5-----5---5--|-----55---------|
 A-3---------55------------------|---------33-----|
 E----------------------5--------|----------------|


Important: The song above is NOT stored on the Chordie server. The original song is hosted at www.guitartabs.cc. Chordie works as a search engine and provides on-the-fly formatting. Chordie does not index songs against artists'/composers' will. To remove this song please click here.

Text color:
Chord color:
Chord grids: 
Font size:    
Page size: 

Am C Dm G
Rate #1 of 10 versions

Jango Player

Login - add to songbook

SHARE PAGE  




You need to log in to post comments