Guitar Tabs, Chords and Lyrics
Major upgrade!! After one year development the new version of Chordie is now online! Please give feedback.


Worth Dying For  Rise Against

 
 -------------------------------------------------------------------------------

Worth Dying For Rise Against
 
 -------------------------------------------------------------------------------

Tabbed by: Rhampunter99
Email:punkrocker789789@hotmail.com
Tuning: Standard ( E A D G B E )
INTRO:
Q Q W Q H
 
 e||--------|-------|-------|--------||--------------|
 B||.-------|-------|-------|-------.||--------------|
 G||----6---|-------|-------|---4----||-\\\\\\\\\\---|
 D||----6---|---7---|---2---|---4----||-\\\\\\\\\\---|
 A||.---4---|---7---|---2---|---2---.||-\\\\\\\\\\---|
 E||--------|---5---|---0---|--------||--------------|

(pickslide)
VERSE 1:
(Guitar 1)
[E] [E] [E] [E] [E] [E] [E] [E] [E] [E] [E] [E] [E] [E] [E] [E] [E] [E] [E] [E] [E] [E] [E] [E] [E] [E] [E] [E] [E] [E] [E] [E]  
 
 e||------------------|-----------------|-----------------|------------------||
 B||.-----------------|-----------------|-----------------|-----------------.||
 G||--6-6-6-6-6-6-6-6-|-----------------|-9-9-9-9-9-9-9-9-|------------------||
 D||--6-6-6-6-6-6-6-6-|-7-7-7-7-7-7-7-7-|-9-9-9-9-9-9-9-9-|-9-9-x-9-9-9-x-9--||
 A||.-4-4-4-4-4-4-4-4-|-7-7-7-7-7-7-7-7-|-7-7-7-7-7-7-7-7-|-9-9-x-9-9-9-x-9-.||
 E||------------------|-5-5-5-5-5-5-5-5-|-----------------|-7-7-x-7-7-7-x-7--||

[E] [E] [E] [E] [E] [E] [E] [E]  
 
 |------------------||
 |------------------||
 The Second |------------------||
 Time Play |-9-9-9-9-9-9-9-9--||
 This B5 |-9-9-9-9-9-9-9-9--||
 Pattern: |-7-7-7-7-7-7-7-7--||

(Guitar 2)
[E] [E] [E] [E] [E] [E] [E] [E] [E] [E] [E] [E] [E] [E] [E] [E] [E] [E] [E] [E] [E] [E] [E] [E] [E] [E] [E] [E] [E] [E] [E] [E]  
 
 e||------------------|-----------------|-----------------|------------------||
 B||.-----------------|-----------------|-----------------|-----------------.||
 G||--6-6-6-6-6-6-6-6-|-9-9-9-9-9-9-9-9-|-9-9-9-9-9-9-9-9-|------------------||
 D||--6-6-6-6-6-6-6-6-|-9-9-9-9-9-9-9-9-|-9-9-9-9-9-9-9-9-|-9-9-x-9-9-9-x-9--||
 A||.-4-4-4-4-4-4-4-4-|-7-7-7-7-7-7-7-7-|-7-7-7-7-7-7-7-7-|-9-9-x-9-9-9-x-9-.||
 E||------------------|-----------------|-----------------|-7-7-x-7-7-7-x-7--||

[E] [E] [E] [E] [E] [E] [E] [E]  
 
 |------------------||
 |------------------||
 The Second |------------------||
 Time Play |-9-9-9-9-9-9-9-9--||
 This B5 |-9-9-9-9-9-9-9-9--||
 Pattern: |-7-7-7-7-7-7-7-7--||

PRE-CHORUS:
*****Make sure the second time you play through the chorus that you play the last set of
Power Chords that you play them aggressively, staccato, and only down strokes.*******
Last Set of F#5
|
(Guitar 1) |
[E] [E] [E] [E] [E] [E] [E] [E] [E] [E] [E] [E] [E] [E] [E] [E] [E] [E] [E] [E] [E] [E] [E] [E] [E] [E] [E] [E] [E] [E] [E] [E]  
 
 e||------------------|-----------------|-----------------|------------------||
 B||.-----------------|-----------------|-----------------|-----------------.||
 G||------------------|-----------------|-----------------|-4-4-4-4-4-4-4-4--||
 D||--7-7-7-7-7-7-7-7-|-4-4-4-4-4-4-4-4-|-7-7-7-7-7-7-7-7-|-4-4-4-4-4-4-4-4--||
 A||.-7-7-7-7-7-7-7-7-|-4-4-4-4-4-4-4-4-|-7-7-7-7-7-7-7-7-|-2-2-2-2-2-2-2-2-.||
 E||--5-5-5-5-5-5-5-5-|-2-2-2-2-2-2-2-2-|-5-5-5-5-5-5-5-5-|------------------||

(Guitar 2)
[E] [E] [E] [E] [E] [E] [E] [E] [E] [E] [E] [E] [E] [E] [E] [E] [E] [E] [E] [E] [E] [E] [E] [E] [E] [E] [E] [E] [E] [E] [E] [E]  
 
 e||------------------|-----------------|-----------------|------------------||
 B||.-----------------|-----------------|-----------------|-----------------.||
 G||------------------|-----------------|-----------------|------------------||
 D||------------------|-----------------|-----------------|-4-4-4-4-4-4-4-4--||
 A||.-7-7-7-7-7-7-7-7-|-4-4-4-4-4-4-4-4-|-7-7-7-7-7-7-7-7-|-2-2-2-2-2-2-2-2-.||
 E||--5-5-5-5-5-5-5-5-|-2-2-2-2-2-2-2-2-|-5-5-5-5-5-5-5-5-|------------------||

CHORUS:
(Both Guitars)
[E] [E] [E] [E] [E] [E] [E] [E] [E] [E] [E] [E] [E] [E] [E] [E] [E] [E] [E] [E] [E] [E] [E] [E] [E] [E] [E] [E] [E] [E] [E] [E]  
 
 e||------------------|-----------------|-----------------|------------------|
 B||.-----------------|-----------------|-----------------|------------------|
 G||--6-6-6-6-6-6-6-6-|-----------------|-----------------|-4-4-4-4-4-4-4-4--|
 D||--6-6-6-6-6-6-6-6-|-7-7-7-7-7-7-7-7-|-2-2-2-2-2-2-2-2-|-4-4-4-4-4-4-4-4--|
 A||.-4-4-4-4-4-4-4-4-|-7-7-7-7-7-7-7-7-|-2-2-2-2-2-2-2-2-|-2-2-2-2-2-2-2-2--|
 E||------------------|-5-5-5-5-5-5-5-5-|-0-0-0-0-0-0-0-0-|------------------|

[E] [E] [E] [E] [E] [E] [E] [E] [E] [E] [E] [E] [E] [E] [E] [E] [E] [E] [E] [E] [E] [E] [E] [E] [E] [E] [E] [E] [E] [E] [E] [E]  
 
 e|------------------|-----------------|-----------------|------------------||
 B|------------------|-----------------|-----------------|-----------------.||
 G|--6-6-6-6-6-6-6-6-|-----------------|-9-9-9-9-9-9-9-9-|-4-4-4-4-4-4-4-4--||
 D|--6-6-6-6-6-6-6-6-|-7-7-7-7-7-7-7-7-|-9-9-9-9-9-9-9-9-|-4-4-4-4-4-4-4-4--||
 A|--4-4-4-4-4-4-4-4-|-7-7-7-7-7-7-7-7-|-7-7-7-7-7-7-7-7-|-2-2-2-2-2-2-2-2-.||
 E|------------------|-5-5-5-5-5-5-5-5-|-0-0-0-0-0-0-0-0-|------------------||

POST-CHORUS:
This next part is tricky counting so I have included the beats above the tab
(Both Guitars)
[1] [E] [+]___[A]_______[2]___[E] [+] [A] [3] [E] [+] [A] [4] [E] [+] [A]
H | sextuplet | E E E
 
 e||-------------------------------------------------------------------|
 B||.------------------------------------------------------------------|
 G||---6-----6-6-6-6-6-6-------------------------6--------6-----6------| Play
 D||---6-----6-6-6-6-6-6-------------------------6--------6-----6------| 3x
 A||.--4-----4-4-4-4-4-4-------------------------4--------4-----4------|
 E||-------------------------------------------------------------------|

(Guitar 1)
[1] [E] [+] [A] [2] [E] [+] [A] [3] [E] [+] [A] [4] [E] [+] [A] 
 
 e|------------------------------------------------------||
 B|------------------------------------------------------||
 G|---6--------------------------------------------------||
 D|---6--------------------------------------------------||
 A|---4-----------------------------------------2--------||
 E|---------------0-----2-----------4-----5--------------||

(Guitar 2)
[1] [E] [+] [A] [2] [E] [+] [A] [3] [E] [+] [A] [4] [E] [+] [A] 
 
 e|------------------------------------------------------||
 B|------------------------------------------------------||
 G|--6---------------------------------------------------||
 D|--6---------------------------------------------------||
 A|--4---------------------------------------------------||
 E|------------------------------------------------------||

VERSE 2:
(Guitar 1)
[E] [E] [E] [E] [E] [E] [E] [E] [E] [E] [E] [E] [E] [E] [E] [E] [E] [E] [E] [E] [E] [E] [E] [E] [E] [E] [E] [E] [E] [E] [E] [E]  
 
 e||------------------|-----------------|-----------------|------------------||
 B||.-----------------|-----------------|-----------------|-----------------.||
 G||--6-6-6-6-6-6-6-6-|-----------------|-9-9-9-9-9-9-9-9-|------------------||
 D||--6-6-6-6-6-6-6-6-|-7-7-7-7-7-7-7-7-|-9-9-9-9-9-9-9-9-|-9-9-x-9-9-9-x-9--||
 A||.-4-4-4-4-4-4-4-4-|-7-7-7-7-7-7-7-7-|-7-7-7-7-7-7-7-7-|-9-9-x-9-9-9-x-9-.||
 E||------------------|-5-5-5-5-5-5-5-5-|-----------------|-7-7-x-7-7-7-x-7--||

[E] [E] [E] [E] [E] [E] [E] [E]  
 
 |------------------||
 |------------------||
 The Second |------------------||
 Time Play |-9-9-9-9-9-9-9-9--||
 This B5 |-9-9-9-9-9-9-9-9--||
 Pattern: |-7-7-7-7-7-7-7-7--||

(Guitar 2)
[E] [E] [E] [E] [E] [E] [E] [E] [E] [E] [E] [E] [E] [E] [E] [E] [E] [E] [E] [E] [E] [E] [E] [E] [E] [E] [E] [E] [E] [E] [E] [E]  
 
 e||------------------|-----------------|-----------------|------------------||
 B||.-----------------|-----------------|-----------------|-----------------.||
 G||--6-6-6-6-6-6-6-6-|-9-9-9-9-9-9-9-9-|-9-9-9-9-9-9-9-9-|------------------||
 D||--6-6-6-6-6-6-6-6-|-9-9-9-9-9-9-9-9-|-9-9-9-9-9-9-9-9-|-9-9-x-9-9-9-x-9--||
 A||.-4-4-4-4-4-4-4-4-|-7-7-7-7-7-7-7-7-|-7-7-7-7-7-7-7-7-|-9-9-x-9-9-9-x-9-.||
 E||------------------|-----------------|-----------------|-7-7-x-7-7-7-x-7--||

[E] [E] [E] [E] [E] [E] [E] [E]  
 
 |------------------||
 |------------------||
 The Second |------------------||
 Time Play |-9-9-9-9-9-9-9-9--||
 This B5 |-9-9-9-9-9-9-9-9--||
 Pattern: |-7-7-7-7-7-7-7-7--||

(Guitar 1)
W W H. Q W W W H. Q W
 
 e||-------|--------|-----------|---------------|-------|--------|-----------|---------------||
 B||-------|--------|-----------|---------------|-------|--------|-----------|---------------||
 G||-------|--------|-----------|---------------|-------|--------|-----------|---------------||
 D||---9---|---14---|---14--16--|---13----------|---9---|---14---|---14--16--|---13----\\\---||
 A||-------|--------|-----------|---------------|-------|--------|-----------|---------\\\---||
 E||---7---|---12---|---12--14--|---11----------|---7---|---12---|---12--14--|---11----\\\---||

(pickslide)
(Guitar 2)
[E] [E] [E] [E] [E] [E] [E] [E] [E] [E] [E] [E] [E] [E] [E] [E] [E] [E] [E] [E] [E] [E] [E] [E] [E] [E] [E] [E] [E] [E] [E] [E]  
 
 e||------------------|-----------------|-----------------|------------------||
 B||.-----------------|-----------------|-----------------|-----------------.||
 G||--6-6-6-6-6-6-6-6-|-----------------|-9-9-9-9-9-9-9-9-|------------------||
 D||--6-6-6-6-6-6-6-6-|-7-7-7-7-7-7-7-7-|-9-9-9-9-9-9-9-9-|-9-9-9-9-9-9-9-9--||
 A||.-4-4-4-4-4-4-4-4-|-7-7-7-7-7-7-7-7-|-7-7-7-7-7-7-7-7-|-9-9-9-9-9-9-9-9-.||
 E||------------------|-5-5-5-5-5-5-5-5-|-----------------|-7-7-7-7-7-7-7-7--||

PRE-CHORUS:
( Tab from: http://www.guitartabs.cc/tabs/r/rise_against/worth_dying_for_tab_ver_5.html )
*****Make sure the second time you play through the chorus that you play the last set of
Power Chords that you play them aggressively, staccato, and only down strokes.*******
Last Set of F#5
|
(Guitar 1) |
[E] [E] [E] [E] [E] [E] [E] [E] [E] [E] [E] [E] [E] [E] [E] [E] [E] [E] [E] [E] [E] [E] [E] [E] [E] [E] [E] [E] [E] [E] [E] [E]  
 
 e||------------------|-----------------|-----------------|------------------||
 B||.-----------------|-----------------|-----------------|-----------------.||
 G||------------------|-----------------|-----------------|-4-4-4-4-4-4-4-4--||
 D||--7-7-7-7-7-7-7-7-|-4-4-4-4-4-4-4-4-|-7-7-7-7-7-7-7-7-|-4-4-4-4-4-4-4-4--||
 A||.-7-7-7-7-7-7-7-7-|-4-4-4-4-4-4-4-4-|-7-7-7-7-7-7-7-7-|-2-2-2-2-2-2-2-2-.||
 E||--5-5-5-5-5-5-5-5-|-2-2-2-2-2-2-2-2-|-5-5-5-5-5-5-5-5-|------------------||

(Guitar 2)
[E] [E] [E] [E] [E] [E] [E] [E] [E] [E] [E] [E] [E] [E] [E] [E] [E] [E] [E] [E] [E] [E] [E] [E] [E] [E] [E] [E] [E] [E] [E] [E]  
 
 e||------------------|-----------------|-----------------|------------------||
 B||.-----------------|-----------------|-----------------|-----------------.||
 G||------------------|-----------------|-----------------|------------------||
 D||------------------|-----------------|-----------------|-4-4-4-4-4-4-4-4--||
 A||.-7-7-7-7-7-7-7-7-|-4-4-4-4-4-4-4-4-|-7-7-7-7-7-7-7-7-|-2-2-2-2-2-2-2-2-.||
 E||--5-5-5-5-5-5-5-5-|-2-2-2-2-2-2-2-2-|-5-5-5-5-5-5-5-5-|------------------||

CHORUS:
(Both Guitars)
[E] [E] [E] [E] [E] [E] [E] [E] [E] [E] [E] [E] [E] [E] [E] [E] [E] [E] [E] [E] [E] [E] [E] [E] [E] [E] [E] [E] [E] [E] [E] [E]  
 
 e||------------------|-----------------|-----------------|------------------|
 B||.-----------------|-----------------|-----------------|------------------|
 G||--6-6-6-6-6-6-6-6-|-----------------|-----------------|-4-4-4-4-4-4-4-4--|
 D||--6-6-6-6-6-6-6-6-|-7-7-7-7-7-7-7-7-|-2-2-2-2-2-2-2-2-|-4-4-4-4-4-4-4-4--|
 A||.-4-4-4-4-4-4-4-4-|-7-7-7-7-7-7-7-7-|-2-2-2-2-2-2-2-2-|-2-2-2-2-2-2-2-2--|
 E||------------------|-5-5-5-5-5-5-5-5-|-0-0-0-0-0-0-0-0-|------------------|

[E] [E] [E] [E] [E] [E] [E] [E] [E] [E] [E] [E] [E] [E] [E] [E] [E] [E] [E] [E] [E] [E] [E] [E] [E] [E] [E] [E] [E] [E] [E] [E]  
 
 e|------------------|-----------------|-----------------|------------------||
 B|------------------|-----------------|-----------------|-----------------.||
 G|--6-6-6-6-6-6-6-6-|-----------------|-9-9-9-9-9-9-9-9-|-4-4-4-4-4-4-4-4--||
 D|--6-6-6-6-6-6-6-6-|-7-7-7-7-7-7-7-7-|-9-9-9-9-9-9-9-9-|-4-4-4-4-4-4-4-4--||
 A|--4-4-4-4-4-4-4-4-|-7-7-7-7-7-7-7-7-|-7-7-7-7-7-7-7-7-|-2-2-2-2-2-2-2-2-.||
 E|------------------|-5-5-5-5-5-5-5-5-|-0-0-0-0-0-0-0-0-|------------------||

BRIDGE:
(Guitar 2)
W W W H. E E H. Q W
 
 e|-------|---------|---------|---------------|-------|----||
 B|-------|---------|---------|-------------9-|-------|----||
 G|---6---|---(6)---|---(6)---|---(6)---(6)---|-9---8-|-9--||
 D|---6---|---(6)---|---(6)---|---(6)---------|-------|----||
 A|---4---|---(4)---|---(4)---|---(4)---------|-------|----||
 E|-------|---------|---------|---------------|-------|----||

(Guitar 2)
W W W W
 
 e|-------|---------|---------|---------||
 B|-------|---------|---------|---------||
 G|---6---|---(6)---|---(6)---|---(6)---||
 D|---6---|---(6)---|---(6)---|---(6)---||
 A|---4---|---(4)---|---(4)---|---(4)---||
 E|-------|---------|---------|---------||

(Guitar 1)
[1] [E] [+] [A] [2] [E] [+] [A] [3] [E] [+] [A] [4] [E] [+] [A] [1] [E] [+] [A] [2] [E] [+] [A] [3] [E] [+] [A] [4] [E] [+] [A]  
 
 e||--------------------------------------|--------------------------------------|
 B||.-9------------9-------------9--------|--9------------9-------------7--------|
 G||--9------------9-------------9--------|--9------------9-------------9--------|
 D||--7------------7-------------7--------|--7------------7-------------6--------|
 A||.-------------------------------------|--------------------------------------|
 E||--------------------------------------|--------------------------------------|

[1] [E] [+] [A] [2] [E] [+] [A] [3] [E] [+] [A] [4] [E] [+] [A] [1] [E] [+] [A] [2] [E] [+] [A] [3] [E] [+] [A] [4] [E] [+] [A]  
 
 e|--------------------------------------|--------------------------------------||
 B|-9------------9-------------9---------|-7------------7-------------7--------.||
 G|-9------------9-------------9---------|-9------------9-------------9---------||
 D|-7------------7-------------7---------|-6------------6-------------6---------||
 A|--------------------------------------|-------------------------------------.||
 E|--------------------------------------|--------------------------------------||

(Guitar 1)
[1] [E] [+] [A] [2] [E] [+] [A] [3] [E] [+] [A] [4] [E] [+] [A] [1] [E] [+] [A] [2] [E] [+] [A] [3] [E] [+] [A] [4] [E] [+] [A]  
 
 e||----------------------------------------|-------------------------------------|
 B||---9------------9-------------9---------|-9------------9-------------7--------|
 G||---9------------9-------------9---------|-9------------9-------------9--------|
 D||---7------------7-------------7---------|-7------------7-------------6--------|
 A||----------------------------------------|-------------------------------------|
 E||----------------------------------------|-------------------------------------|

(Guitar 2)
[1] [E] [+] [A] [2] [E] [+] [A] [3] [E] [+] [A] [4] [E] [+] [A] [1] [E] [+] [A] [2] [E] [+] [A] [3] [E] [+] [A] [4] [E] [+] [A]  
 
 e||----------------------------------------|-------------------------------------|
 B||----------------------------------------|-------------------------------------|
 G||---6------------------------------------|-(6)---------------------------------|
 D||---x------------------------------------|-(x)---------------------------------|
 A||---4------------------------------------|-(4)---------------------------------|
 E||----------------------------------------|-------------------------------------|

(Guitar 1)
[1] [E] [+] [A] [2] [E] [+] [A] [3] [E] [+] [A] [4] [E] [+] [A] [1] [E] [+] [A] [2] [E] [+] [A] [3] [E] [+] [A] [4] [E] [+] [A]  
 
 e|------------------------------------------------------------------------------|
 B|-9------------9-------------9----------7------------7-------------7-----------|
 G|-9------------9-------------9----------9------------9-------------9-----------|
 D|-7------------7-------------7----------6------------6-------------6-----------|
 A|------------------------------------------------------------------------------|
 E|------------------------------------------------------------------------------|

(Guitar 2)
[1] [E] [+] [A] [2] [E] [+] [A] [3] [E] [+] [A] [4] [E] [+] [A] [1] [E] [+] [A] [2] [E] [+] [A] [3] [E] [+] [A] [4] [E] [+] [A]  
 
 e|-------------------------------------|----------------------------------------|
 B|-------------------------------------|----------------------------------------|
 G|-8-----------------------------------|-(8)------------------------------------|
 D|-x-----------------------------------|-(x)------------------------------------|
 A|-6-----------------------------------|-(6)------------------------------------|
 E|-------------------------------------|----------------------------------------|

(Guitar 1)
[1] [E] [+] [A] [2] [E] [+] [A] [3] [E] [+] [A] [4] [E] [+] [A] [1] [E] [+] [A] [2] [E] [+] [A] [3] [E] [+] [A] [4] [E] [+] [A]  
 
 e|-----------------------------------------|-------------------------------------|
 B|----9------------9-------------9---------|-9------------9-------------7--------|
 G|----9------------9-------------9---------|-9------------9-------------9--------|
 D|----7------------7-------------7---------|-7------------7-------------6--------|
 A|-----------------------------------------|-------------------------------------|
 E|-----------------------------------------|-------------------------------------|

(Guitar 2)
[1] [E] [+] [A] [2] [E] [+] [A] [3] [E] [+] [A] [4] [E] [+] [A] [1] [E] [+] [A] [2] [E] [+] [A] [3] [E] [+] [A] [4] [E] [+] [A]  
 
 e|-------------------------------------|----------------------------------------|
 B|-------------------------------------|----------------------------------------|
 G|-9-----------------------------------|-(9)------------------------------------|
 D|-x-----------------------------------|-(x)------------------------------------|
 A|-7-----------------------------------|-(7)------------------------------------|
 E|-------------------------------------|----------------------------------------|

(Guitar 1)
[1] [E] [+] [A] [2] [E] [+] [A] [3] [E] [+] [A] [4] [E] [+] [A] [1] [E] [+] [A] [2] [E] [+] [A] [3] [E] [+] [A] [4] [E] [+] [A]  
 
 e|------------------------------------------------------------------------------|
 B|-9------------9-------------9----------7------------7-------------7-----------|
 G|-9------------9-------------9----------9------------9-------------9-----------|
 D|-7------------7-------------7----------6------------6-------------6-----\\\---|
 A|------------------------------------------------------------------------\\\---|
 E|------------------------------------------------------------------------\\\---|

(pickslide)
(Guitar 2)
[1] [E] [+] [A] [2] [E] [+] [A] [3] [E] [+] [A] [4] [E] [+] [A] [1] [E] [+] [A] [2] [E] [+] [A] [3] [E] [+] [A] [4] [E] [+] [A]  
 
 e|-------------------------------------|----------------------------------------|
 B|-------------------------------------|----------------------------------------|
 G|-8-----------------------------------|-(8)------------------------------------|
 D|-x-----------------------------------|-(x)-----------------------------\\\\\--|
 A|-6-----------------------------------|-(6)-----------------------------\\\\\--|
 E|-------------------------------------|---------------------------------\\\\\--|

(pickslide)
(Both Guitars)
E E E E E E E E Q Q H
 
 E||------------------|---------------------|
 B||------------------|---------------------|
 G||------------------|-------------------4-|
 D||------------------|-------------------4-|
 A||--7p6h7p6h7p6h7p6-|-7--------6--------2-|
 E||------------------|---------------------|

[E] [E] [E] [E] [E] [E] [E] [E] [1] [E] [+] [A] [2] [E] [+] [A] [3] [E] [+] [A] [4] [E] [+] [A]  
 
 e|------------------|------------------------------------|
 B|------------------|------------------------------------|
 G|---------------11-|------------------------------------|
 D|---------------11-|------------------------------------|
 A|-7p6h7p6h7p6-7-9--|-----------7---6--------------------|
 E|------------------|------------------------------------|

E E E E E E E E Q Q H
 
 E|------------------|---------------------|
 B|------------------|---------------------|
 G|------------------|-------------------4-|
 D|------------------|-------------------4-|
 A|--7p6h7p6h7p6h7p6-|-7--------6--------2-|
 E|------------------|---------------------|

[E] [E] [E] [E] [E] [E] [E] [E] [E] [E] [E] [E] [E] [E] [E] [E] [E]  
 
 e|----|-----------------|------------------|
 B|----|-----------------|------------------|
 G|----|-4-4-4-4-4-4-4-4-|-4-4-4-4-4-4-4-4--|
 D|----|-4-4-4-4-4-4-4-4-|-4-4-4-4-4-4-4-4--|
 A|-7--|-2-2-2-2-2-2-2-2-|-2-2-2-2-2-2-2-2--|
 E|----|-----------------|------------------|

^^^^^^^^^^ Hit it hard ^^^^^^^^^^
CHORUS:
(Both Guitars)
[E] [E] [E] [E] [E] [E] [E] [E] [E] [E] [E] [E] [E] [E] [E] [E] [E] [E] [E] [E] [E] [E] [E] [E] [E] [E] [E] [E] [E] [E] [E] [E]  
 
 e||------------------|-----------------|-----------------|------------------|
 B||------------------|-----------------|-----------------|------------------|
 G||--6-6-6-6-6-6-6-6-|-----------------|-----------------|-4-4-4-4-4-4-4-4--|
 D||--6-6-6-6-6-6-6-6-|-7-7-7-7-7-7-7-7-|-2-2-2-2-2-2-2-2-|-4-4-4-4-4-4-4-4--|
 A||--4-4-4-4-4-4-4-4-|-7-7-7-7-7-7-7-7-|-2-2-2-2-2-2-2-2-|-2-2-2-2-2-2-2-2--|
 E||------------------|-5-5-5-5-5-5-5-5-|-0-0-0-0-0-0-0-0-|------------------|

[E] [E] [E] [E] [E] [E] [E] [E] [E] [E] [E] [E] [E] [E] [E] [E] [E] [E] [E] [E] [E] [E] [E] [E] [E] [E] [E] [E] [E] [E] [E] [E]  
 
 e|------------------|-----------------|-----------------|------------------||
 B|------------------|-----------------|-----------------|------------------||
 G|--6-6-6-6-6-6-6-6-|-----------------|-9-9-9-9-9-9-9-9-|-4-4-4-4-4-4-4-4--||
 D|--6-6-6-6-6-6-6-6-|-7-7-7-7-7-7-7-7-|-9-9-9-9-9-9-9-9-|-4-4-4-4-4-4-4-4--||
 A|--4-4-4-4-4-4-4-4-|-7-7-7-7-7-7-7-7-|-7-7-7-7-7-7-7-7-|-2-2-2-2-2-2-2-2--||
 E|------------------|-5-5-5-5-5-5-5-5-|-0-0-0-0-0-0-0-0-|------------------||

^^^^^^^^^^^^^^^^^^^^^^^^^^^^^^^PLAY 3 TIMES^^^^^^^^^^^^^^^^^^^^^^^^^^^^^^^^^^
OUTRO:
(Both Guitars)
e||---||
B||---||
G||-6-||
D||-6-||
A||-4-||
E||---||
| W whole note
| H half note
| H. dotted half note = 3 beats
| Q quarter note
| E eighth note
| / slide up
| \ slide down
| H hammer-on
| p pull-off
| ~ vibrato
| + harmonic
| x Mute note
===============================================================================

Important: The song above is NOT stored on the Chordie server. The original song is hosted at www.guitartabs.cc. Chordie works as a search engine and provides on-the-fly formatting. Chordie does not index songs against artists'/composers' will. To remove this song please click here.

Text color:
Chord color:
Chord grids: 
Font size:    
Page size: 

A E
Rate #1 of 8 versions

Login - add to songbook

SHARE PAGE  




You need to log in to post comments