Guitar Tabs, Chords and Lyrics
Major upgrade!! After one year development the new version of Chordie is now online! Please give feedback.


Awit Ng Kabataan  Rivermaya

Song:Awit Ng Kabataan
Tabbed by:Oscar Ramos
Email:xbitz_3@yahoo.com
Tuning: EADBGe (Standard)
Intro:C-D-G (8x)
C-D pause
Verse 1:
nat[C]atawa sa[D] atin ka[G]ibigan
at nangang[C]aral ang bu[D]ong m[G]undo
wa[C]la na raw t[D]ayong mga ka[G]bataan
sa at[C]ing mga ul[D-G]o
kung gus[C]to niyo kami[D]ng s[G]igawan
ba[C]kit hindi[D] niyo subu[G]kan?
[C]lalo lang ka[D]yong
hindi maiin[G]tindihan[C-D]
Chorus:
ang awit ng ka[C-D]bata[G]an
ang awit ng pa[C-D]naho[G]n
hanggang sa ki[C-D]nabu[G]kasan
awitin na[C]tin n[D]gayon[G]
Verse 2:
hindi[C] niyo k[D]ami mabib[G]ilang
at hin[C]di rin maiku[D]kulong[G]
[C]marami [D]kami ngunit i[G]isa lamang
ang a[C]ming[D] pasy[G]on
(Repeat Chorus*)
Verse 3:
At sa pag-[C]tulog sa gabi
Mariri[G]nig ang dasal
Ng kab[C]ataang uhaw
G C G~pause
Sa tunay na pagmamahal
Adlib:
( Tab from: http://www.guitartabs.cc/tabs/r/rivermaya/awit_ng_kabataan_crd_ver_2.html )
 
 e|----------------|----------------|-----------------------------------------|
 B|-12-13-15/20-15-|-13-12-13-15----|-------------------------12----15-13/15--|
 G|----------------|-------------12-|-------12----12-14-12h14----14-----------|
 D|----------------|----------------|-12h14----14-----------------------------|
 A|----------------|----------------|-----------------------------------------|
 E|----------------|----------------|-----------------------------------------|
 e|----------|--------|-------------|-------15-|-0h10h12-t15-t15-|-0h8h10-t15-t15-|
 B|-12-13/20-|-b15-15-|-13-12-13h15-|-13p12----|-----------------|----------------|
 G|----------|--------|-------------|----------|-----------------|----------------|
 D|----------|--------|-------------|----------|-----------------|----------------|
 A|----------|--------|-------------|----------|-----------------|----------------|
 E|----------|--------|-------------|----------|-----------------|----------------|
 e|-0h7h8-t15-t15-|-0h5h7-t15-t15-|-/22-b22-22-|-------------------20-------------|
 B|---------------|---------------|------------|-b22-b22-20-22-b22----b22-22-20---|
 G|---------------|---------------|------------|----------------------------------|
 D|---------------|---------------|------------|----------------------------------|
 A|---------------|---------------|------------|----------------------------------|
 E|---------------|---------------|------------|----------------------------------|
 e|-------------|-------------|----------------|----------|-------------|
 B|-------20-20-|-------20-20-|----------------|----------|-------------|
 G|-19h21-------|-19h21-------|----------------|----------|-------19----|
 D|-------------|-------------|-17h19-17----17-|-------17-|-19/20-------|
 A|-------------|-------------|----------19----|-17/19----|-------------|
 E|-------------|-------------|----------------|----------|-------------|
 e|-0h10h12-t15p12p10h12-|-------0h3h5p3-|-0h10h12-t15-|-0h3h5p3-|
 B|----------------------|-0h3h5---------|-------------|---------|
 G|----------------------|---------------|-------------|---------|
 D|----------------------|---------------|-------------|---------|
 A|----------------------|---------------|-------------|---------|
 E|----------------------|---------------|-------------|---------|
 e|-0h10h12-t15-t15-|-0h8h10-t15-t15-|-0h7h8-t15-t15-|-------0h3h5p3---|
 B|-----------------|----------------|---------------|-0h3h5-----------|
 G|-----------------|----------------|---------------|-----------------|
 D|-----------------|----------------|---------------|-----------------|
 A|-----------------|----------------|---------------|-----------------|
 E|-----------------|----------------|---------------|-----------------|

Verse 4:
[C]nawawa[D]la,nagtatag[G]o
nag[C]hahan[D]ap ng kaib[G]igan
nag[C]tatak[D]a, nagtata[G]nong
kung k[C]ail[D]an kami mapak[G]ikinggan
[C]kung gusto [D]mo akong su[G]bukan
[C]bakit hind[D]i mo su[G]bukan
[C]subukan mo a[D]kong pi[G]gilan
[C]subukan n[D]inyo kami[G]
(Repeat Chorus*)
Coda:
[C-D]kabat[G]aan...
[C-D]pana[G]hon...
[C-D]kaba[G]taan...
ngayon na ang a[C-D]ting pana[G]hon
Legend:
| b bend
| / slide up
| \ slide down
| h hammer-on
| p pull-off
| ~ vibrato
| + harmonic
| T tap
==============================================================================
thx sa bndm8s q kay JV aus!!! n sa mga bertilla boyz kay Price, Joel, Jomar
Karl at Adri... kay ano.. 4 da inspiration nyahahah!!!!thx sa pag support..
n sa mga nklimutan q thx din nyahahahah....
Add me friendster xbitz_3@yahoo.com Testi n din!!!
Comments? email lng...
==============================================================================

Important: The song above is NOT stored on the Chordie server. The original song is hosted at www.guitartabs.cc. Chordie works as a search engine and provides on-the-fly formatting. Chordie does not index songs against artists'/composers' will. To remove this song please click here.

Text color:
Chord color:
Chord grids: 
Font size:    
Page size: 

C D G
Rate #1 of 10 versions

Login - add to songbook

SHARE PAGE  




You need to log in to post comments