Guitar Tabs, Chords and Lyrics
Server problems seems to be fixed. Chordie has been experiencing problems with songs disappearing. These issues now seems to be fixed, but still verifying the fix. If you find anything strange, please email admin@chordie.com.


Disengage   Robert Fripp

 
 -----------------------------------------------------------------------------

 


 DISENGAGE - Robert Fripp


 

 
 -----------------------------------------------------------------------------

 


 Tabbed by: Robotfrom94


 E-mail: john.shannon1994@hotmail.com


 


 Tuning: Standard


 


 Hey, this is my tab for Disengage by Robert Fripp.


 This is an insane song; in terms of timing, vocals etc. but really fun


 I'm going to put time signatures (e.g. 7/8 11/8 etc) at the start of each phrase,


 follow the time signature until you see the next one.


 Each - denotes a semiquaver. The numbers above are the quaver beats


 


 Intro (0.32)


 9/8 12/8


 1 2 3 4 5 6 7 8 9 1 2 3 4 1 2 3 4 1 2 3 4


 

 
 G|------------------|-----------------------|
 D|------------------|--5--55-5-5-5--5--553--|
 A|------4------5----|---------------------5-|
 E|3-----------------|3----------------------| x2

 


 


 9/8 11/8


 1 2 3 4 5 6 7 8 9 1 2 3 4 1 2 3 4 1 2 3


 

 
 G|------------------|----------------3-----|
 D|------------------|0----------------503--|
 A|------4------5----|----1-----------------| Note, tie the last 3 to the
 E|3-----------------|--------------------73| first 3 of the verse

 


 


 


 Verse


 7/8


 [1] [2] [3] [4] [5] [6] [7]  

 
 G|--------------|
 D|--------------|
 A|----1-2-------|
 E|3-3-----3-3-1-|x4 then 

 


 


 [1] [2] [3] [4] [5] [6] [7]  

 
 G|--------------|
 D|----4-5-------|
 A|6-6-----6-6-4-|
 E|--------------|x4

 


 


 


 Chorus


 12/8


 [1] [2] [3] [4] [1] [2] [3] [4] [1] [2] [3] [4]  

 
 G|-----------------------|
 D|--5--55-5-5-5--5--553--|
 A|---------------------5-|
 E|3----------------------| 

 


 


 [1] [2] [3] [4] [1] [2] [3] [4] [1] [2] [3] [4]  

 
 G|-----------------------|
 D|--8--88-8-8-8---8--88-8|
 A|-----------------------|
 E|6----------------------|

 


 


 [1] [2] [3] [4] [1] [2] [3] [4] [1] [2] [3] [4]  

 
 G|-----------------------| 0s here denote 10th fret.
 D|--0--00-0-0-0--0--008--| Didn't have enough room
 A|---------------------0-|
 E|8----------------------|

 


 


 [1] [2] [3] [4] [1] [2] [3] [4] [1] [2] [3] [4]  

 
 G|--7--77-7-7-7---7--77--|
 D|-----------------------|
 A|5----------------------|
 E|-----------------------|

 


 


 10/8


 [1] [2] [3] [4] [5]  

 
 G|77777777777777------|
 D|---------------3----| Again, tie the last 3 of the chorus
 A|----------------05--| to the first 3 of the verse
 E|------------------73|

 


 


 


 Verse 2:


 7/8


 [1] [2] [3] [4] [5] [6] [7] [1] [2] [3] [4] [5] [6] [7]  

 
 G|--------------|--------------|
 D|--------------|--------------|
 A|----1-2---4-5-|----1-2-------|
 E|3-3-----3-----|3-3-----3-3-1-|x2

 


 


 [1] [2] [3] [4] [5] [6] [7]  

 
 G|--------------|
 D|----4-5-------|
 A|6-6-----6-6-4-|
 E|--------------|x4

 


 


 


 Chorus 2:


 


 9/8 12/8


 1 2 3 4 5 6 7 8 9 1 2 3 4 1 2 3 4 1 2 3 4


 

 
 G|------------------|-----------------------|
 D|------------------|--5--55-5-5-5--5--553--|
 A|------4------5----|---------------------5-|
 E|3-----------------|3----------------------| x2

 


 


 12/8


 [1] [2] [3] [4] [1] [2] [3] [4] [1] [2] [3] [4]  

 
 G|-----------------------|
 D|--8--88-8-8-8---8--88-8|
 A|-----------------------|
 E|6----------------------|

 


 


 [1] [2] [3] [4] [1] [2] [3] [4] [1] [2] [3] [4]  

 
 G|-----------------------| again, 0s here denote 10th fret.
 D|--0--00-0-0-0---0--008-|
 A|----------------------0|
 E|8----------------------|

 


 


 [1] [2] [3] [4] [1] [2] [3] [4] [1] [2] [3] [4]  

 
 G|--8-8-8-8-8--8-8-8888-8|
 D|-----------------------|
 A|6----------------------|
 E|-----------------------|

 


 


 [1] [2] [3] [4] [1] [2] [3] [4] [1] [2] [3] [4]  

 
 G|8---8---222-222---2-2-2| 3 = 13, 2 = 20
 D|------3---------3------|
 A|--6--------------------|
 E|-----------------------|

 


 


 


 Verse 3:


 7/8


 [1] [2] [3] [4] [5] [6] [7]  

 
 G|--------------|
 D|--------------|
 A|----1-2-------|
 E|3-3-----3-3-1-|x8

 


 


 [1] [2] [3] [4] [5] [6] [7]  

 
 G|--------------|
 D|----4-5-------|
 A|6-6-----6-6-4-|
 E|--------------|x4

 


 


 [1] [2] [3] [4] [5] [6] [7]  

 
 G|--------------|
 D|--------------|
 A|----1-2-------|
 E|3-3-----3-3-1-|x4


Important: The song above is NOT stored on the Chordie server. The original song is hosted at www.guitartabs.cc. Chordie works as a search engine and provides on-the-fly formatting. Chordie does not index songs against artists'/composers' will. To remove this song please click here.

This song is displayed as text-only. Transposing and tuning is only available for chordpro-songs.
Rate #1 of 1 versions

Jango Player

Login - add to songbook

SHARE PAGE  



You need to log in to post comments