Guitar Tabs, Chords and Lyrics
Server problems seems to be fixed. Chordie has been experiencing problems with songs disappearing. These issues now seems to be fixed, but still verifying the fix. If you find anything strange, please email admin@chordie.com.


All the King's Horses  Robert Plant

ROBERT PLANT - ALL THE KING'S HORSES
(Plant, whoever else)
Tabber: Mord_Wraith
E-mail: thundastruck@hotmail.com
Date: 7/11/2005
Tuning (low to high): EADGBE
Chords used:
C x32010
Fmaj7 x33210
G 320033
Intro:
 
 E|-----------0-----------------3---------|
 B|-----------1-----------------3---------|
 G|-------0---0-(strum)-----0---0-(strum)-|
 D|---2h3-----2---------2h3-----0---------|
 A|---------3-3-----------------2---------|
 E|---------------------------3-3---------|
 E|---------------0-----------------------------------------|
 B|-------------1-1--------------------1--------------------|
 G|-----------0---2-(strum)-----------0--(let ring)-----0---|
 D|-----0h2h3-----3---------------0--2--------------2h3-----|
 A|---3-----------3-----------0-3---3-----------------------|
 E|-------------------------3-------------------------------|

Verse:
[C] Swift and true straight to my he[G]art
Love has come [Fmaj7]calling and I'm back there ag[C]ain
[C] I pour myself a brand new st[G]art
Glad to be [Fmaj7]falling for the beauty wi[C]thin
Chorus:
[G]All the King's hor[Fmaj7]ses
[G]All the King's m[Fmaj7]en
Verse:
[C] I'm on the outside looking [G]in
Over and o[Fmaj7]ver and over aga[C]in
[C] There's no telling where I've be[G]en
How I returne[Fmaj7]d here, how much I have s[C]een
Chorus:
[G]All the king's ho[Fmaj7]rses
[G]All the king's m[Fmaj7]en
Bridge:
[C] I'll weave a circle round the s[Fmaj7]un
[C] Throw down my arms and give my a[Fmaj7]ll
[C] I'll be your soldier of l[Fmaj7]ove
[---]  
That's the song... very easy. Play the fills between the chords if you want, it sounds better.

Important: The song above is NOT stored on the Chordie server. The original song is hosted at www.guitartabs.cc. Chordie works as a search engine and provides on-the-fly formatting. Chordie does not index songs against artists'/composers' will. To remove this song please click here.

Text color:
Chord color:
Chord grids: 
Font size:    
Page size: 

C Fmaj7 G
Rate #2 of 4 versions

Login - add to songbook

SHARE PAGE  




You need to log in to post comments