Guitar Tabs, Chords and Lyrics
Major upgrade!! After one year development the new version of Chordie is now online! Please give feedback.


Sailing  Rod Stewart

SAILING
ROD STEWART
I am sa[C]iling, I am s[Am]ailing home [Dm]again 'cross the [C]sea.
[D] [Am] [Dm]  
I a[G]m sailing stormy waters, to be near you, to be free.
I am fl[C]ying, I am fl[Am]ying like a [Dm]bird 'cross the s[C]ea.
[D] [Am] [Dm]  
I a[G]m flying passing high clouds, to be near you, to be free.
Can you[C] hear me, can[Am] you hear me[Dm], thru the dark n[C]ight far away?
[D] [Am] [Dm]  
I a[G]m dying, forever trying to be with you; who can say?
Can you[C] hear me, can[Am] you hear me[Dm], thru the dark n[C]ight far away?
[D] [Am] [Dm]  
I a[G]m dying, forever trying to be with you; who can say?
We are [C]sailing, we a[Am]re sailing h[Dm]ome again 'cross [C]the sea.
[D] [Am] [Dm]  
We [G]are sailing stormy waters, to be near you, to be free.
[G]Oh Lord, to be n[Dm]ear you, to be [C]free.
[G]Oh Lord, to be n[Dm]ear you, to be [C]free.
 
 |----------0-3-5-5--5-3-3-1--1-0-0--0-1-0--------0------------0------------|
 |---0-1-1----------------------------------3-3--3--3-1-1----1---3--3-1-1---|
 |-0-------------------------------------------------------2----------------|
 |--------------------------------------------------------------------------|
 |--------------------------------------------------------------------------|
 |--------------------------------------------------------------------------|

ALL REPEAT
END:
 
 |------0----------|
 |----1---3--3-1-1-|
 |--2--------------|
 |-----------------|
 |-----------------|
 |-----------------|

Bueno, espero que les guste esta que es mi primer canción, soy mexicano.
cualquier duda o sugerencia a mi correo diavoleindracon_91@hotmail.com con Edgar
Solórzano López.
Good, I hope that they like this that is my first song, I´m Mexican. Any doubt or
to my mail diavoleindracon_91@hotmail.com with Edgar Alejandro Solórzano López.

Important: The song above is NOT stored on the Chordie server. The original song is hosted at www.guitartabs.cc. Chordie works as a search engine and provides on-the-fly formatting. Chordie does not index songs against artists'/composers' will. To remove this song please click here.

Text color:
Chord color:
Chord grids: 
Font size:    
Page size: 

Am C D Dm G
Rate #1 of 15 versions

Jango Player

Login - add to songbook

SHARE PAGE  



You need to log in to post comments