Guitar Tabs, Chords and Lyrics
Major upgrade!! After one year development the new version of Chordie is now online! Please give feedback.


Fashion   Rogue Traders

 
 e|----------------------------|
 B|----------------------------|
 G|----------------------------|
 D|----------------------------|
 A|------------------7-7-6-5---|
 E|--7-----7-5-5---7-----------|

 


 


 


 [INTRO 2 / 0:15] x4


 

 
 e|----------------------------|
 B|----------------------------|
 G|------------------9-9-8-7---|
 D|------------------7-7-6-5---|
 A|--9-----9-7-7---7-----------|
 E|--7-----7-5-5---5-----------|

 


 


 


 [VERSE 1 / 0:30] x4


 

 
 e|----------------------------|
 B|----------------------------|
 G|----------------------------|
 D|----------------------------|
 A|------------------7-7-6-5---|
 D|--7-----7-5-5---5-----------|

 


 


 


 [PRECBORUS / 0:45] 


 

 
 e|---------------------------------|-----------------------------|
 B|---------------------------------|-----------------------------|
 G|---------------------------------|-----------------------------|
 D|-7-7-7-7-7-6-7-9---9-9-9-9-9-9-9-|-7-7-7-7-7-6-7-9---9-9-9-9---|
 A|-5-5-5-5-5-4-5-7---7-7-7-7-7-7-7-|-5-5-5-5-5-4-5-7---7-7-7-7---|
 E|---------------------------------|-----------------------------|

 


 


 


 [CBORUS / 0:53] x3


 

 
 e|----------------------------| |-----------------------------|
 B|----------------------------| |-----------------------------|
 G|----------------------------| |-----------------------------|
 D|------------------9-9-8-7---| |-7-7-7-7-7-6-7-9---9-9-9-9---|
 A|--9-----9-7-7---7-7-7-6-5---| |-5-5-5-5-5-4-5-7---7-7-7-7---|
 E|--7-----7-5-5---5-----------| |-----------------------------|

 


 


 


 [PRE-VERSE / 1:08] x2


 

 
 e|----------------------------|
 B|----------------------------|
 G|----------------------------|
 D|------------------9-9-8-7---|
 A|--9-----9-7-7---7-7-7-6-5---|
 E|--7-----7-5-5---5-----------|

 


 


 


 [VERSE 2 / 1:16] x4


 

 
 e|----------------------------|
 B|----------------------------|
 G|----------------------------|
 D|----------------------------|
 A|------------------7-7-6-5---|
 E|--7-----7-5-5---5-----------|

 


 


 


 [PRECBORUS / 1:31] x2


 

 
 e|---------------------------------|---------------------------------|
 B|---------------------------------|---------------------------------|
 G|---------------------------------|---------------------------------|
 D|-7-7-7-7-7-6-7-9---9-9-9-9-9-9-9-|-7-7-7-7-7-6-7-9---9-9-9-9-9-9-9-|
 A|-5-5-5-5-5-4-5-7---7-7-7-7-7-7-7-|-5-5-5-5-5-4-5-7---7-7-7-7-7-7-7-|
 E|---------------------------------|---------------------------------|
 e|---------------------------------|-----------------------------|
 B|---------------------------------|-----------------------------|
 G|---------------------------------|-----------------------------|
 D|-7-7-7-7-7-6-7-9---9-9-9-9-9-9-9-|-7-7-7-7-7-6-7-9---9-9-9-9---|
 A|-5-5-5-5-5-4-5-7---7-7-7-7-7-7-7-|-5-5-5-5-5-4-5-7---7-7-7-7---|
 E|---------------------------------|-----------------------------|

 


 


 


 [CBORUS / 1:46] x3


 

 
 e|----------------------------| |-----------------------------|
 B|----------------------------| |-----------------------------|
 G|----------------------------| |-----------------------------|
 D|------------------9-9-8-7---| |-7-7-7-7-7-6-7-9---9-9-9-9---|
 A|--9-----9-7-7---7-7-7-6-5---| |-5-5-5-5-5-4-5-7---7-7-7-7---|
 E|--7-----7-5-5---5-----------| |-----------------------------|

 


 


 [repeat CBORUS] x3


 

 
 e|----------------------------| |-----------------------------|
 B|----------------------------| |-----------------------------|
 G|----------------------------| |-----------------------------|
 D|------------------9-9-8-7---| |-7-7-7-7-7-6-7-9---9-9-9-9---|
 A|--9-----9-7-7---7-7-7-6-5---| |-5-5-5-5-5-4-5-7---7-7-7-7---|
 E|--7-----7-5-5---5-----------| |-----------------------------|

 


 


 


 [PRE-VERSE / 2:17] x2


 

 
 e|----------------------------|
 B|----------------------------|
 G|----------------------------|
 D|------------------9-9-8-7---|
 A|--9-----9-7-7---7-7-7-6-5---|
 E|--7-----7-5-5---5-----------|

 


 


 


 [BRIDGE* / 2:24] x3


 

 
 e|---------------------------------|
 B|---------------------------------|
 G|---------9~------7~----------9~--|
 D|-9~------------------------------|
 A|---------------------------------|
 E|---------------------------------|

 


 


 then


 

 
 e|----------------------------|
 B|----------------------------|
 G|----------------------------|
 D|----------------------------|
 A|------------------7-7-6-5---|
 E|--7-----7-5-5---5-----------|

 


 


 


 [CBORUS / 2:51] x3


 

 
 e|----------------------------| |-----------------------------|
 B|----------------------------| |-----------------------------|
 G|----------------------------| |-----------------------------|
 D|------------------9-9-8-7---| |-7-7-7-7-7-6-7-9---9-9-9-9---|
 A|--9-----9-7-7---7-7-7-6-5---| |-5-5-5-5-5-4-5-7---7-7-7-7---|
 E|--7-----7-5-5---5-----------| |-----------------------------|

 


 


 [repeat CBORUS] x3


 

 
 e|----------------------------| |-----------------------------|
 B|----------------------------| |-----------------------------|
 G|----------------------------| |-----------------------------|
 D|------------------9-9-8-7---| |-7-7-7-7-7-6-7-9---9-9-9-9---|
 A|--9-----9-7-7---7-7-7-6-5---| |-5-5-5-5-5-4-5-7---7-7-7-7---|
 E|--7-----7-5-5---5-----------| |-----------------------------|


Important: The song above is NOT stored on the Chordie server. The original song is hosted at www.guitartabs.cc. Chordie works as a search engine and provides on-the-fly formatting. Chordie does not index songs against artists'/composers' will. To remove this song please click here.

This song is displayed as text-only. Transposing and tuning is only available for chordpro-songs.
Rate #1 of 2 versions

Jango Player

Login - add to songbook

SHARE PAGE  



You need to log in to post comments