Guitar Tabs, Chords and Lyrics
Major upgrade!! After one year development the new version of Chordie is now online! Please give feedback.


The Price We Pay   Rogue Traders

 
 e|------------------------------------|
 B|--0------0----0-----0------0----0---|
 G|--1----1------1-----1----1------1---|
 D|--2---2-2-2---2-----2---2-2-2---2---|
 A|------------------------------------|
 D|------------------------------------|

 


 


 


 [RIFF 1a / 0:09] x4


 

 
 e|------------------------------------|
 B|--0------0----0-----0------0----0---|
 G|--1----1------1-----1----1------1---|
 D|--2---2-2-2---2-----2---2-2-2---2---|
 A|------------------------------------|
 D|------------------------------------|

 


 


 


 [RIFF 2 / 0:27] 


 

 
 e|----------------------------------|-----------------------------------|
 B|--3------3----3-----2------2----2-|--4------4----4-----3------3----2--|
 G|--4----4------4-----2----2------2-|--4----4------4----------4------2--|
 D|--5---5-5-5---5-----2---2-2-2---2-|--4---4-4-4---4-----5---5-5-5---2--|
 A|----------------------------------|-----------------------------------|
 D|----------------------------------|-----------------------------------|

 


 


 x2


 

 
 e|----------------------------------|------------------------------------|
 B|--3------3----3-----2------2----2-|--4------4----4-----3------3----2---|
 G|--4----4------4-----2----2------2-|--4----4------4-----4----4------2---|
 D|--5---5-5-5---5-----2---2-2-2---2-|--4---4-4-4---4-----5---5-5-5---2---|
 A|----------------------------------|------------------------------------|
 D|----------------------------------|------------------------------------|

 


 


 


 [RIFF 1b / 1:03] x2


 

 
 e|----------------------------------|------------------------------------|
 B|--0------0----0-----0------0----0-|--0------0----0-----3------3----2---|
 G|--1----1------1----------1------1-|--1----1------1-----4----4------2---|
 D|--2---2-2-2---2-----2---2-2-2---2-|--2---2-2-2---2-----5---5-5-5---2---|
 A|----------------------------------|------------------------------------|
 D|----------------------------------|------------------------------------|

 


 


 


 [RIFF 2 / 1:22] 


 

 
 e|----------------------------------|-----------------------------------|
 B|--3------3----3-----2------2----2-|--4------4----4-----3------3----2--|
 G|--4----4------4-----2----2------2-|--4----4------4-----4----4------2--|
 D|--5---5-5-5---5-----2---2-2-2---2-|--4---4-4-4---4-----5---5-5-5---2--|
 A|----------------------------------|-----------------------------------|
 D|----------------------------------|-----------------------------------|

 


 


 x2


 

 
 e|----------------------------------|------------------------------------|
 B|--3------3----3-----2------2----2-|--4------4----4-----3------3----2---|
 G|--4----4------4-----2----2------2-|--4----4------4-----4----4------2---|
 D|--5---5-5-5---5-----2---2-2-2---2-|--4---4-4-4---4-----5---5-5-5---2---|
 A|----------------------------------|------------------------------------|
 D|----------------------------------|------------------------------------|

 


 


 


 [RIFF 3 / 1:58] 


 

 
 e|----------------------------|-----------------------|
 B|----------------------------|-----------------------|
 G|----------------------------|--4-x12----------------|
 D|--5-x8---7-x4---2-x2---0-x2-|--4-------2-x2---0-x2--|
 A|--5------7------2------0----|--2-------2------0-----|
 D|--5------7------2------0----|----------2------0-----|

 


 


 x2


 

 
 e|----------------------------|-----------|
 B|----------------------------|-----------|
 G|----------------------------|--4--x16---|
 D|--5-x8---7-x4---2-x2---0-x2-|--4--------|
 A|--5------7------2------0----|--2--------|
 D|--5------7------2------0----|-----------|

 


 


 


 [RIFF 4 / 2:35] 


 

 
 e|--------|--------|--------------|--------------|
 B|--------|--------|--------------|--------------|
 G|--------|--------|--------------|--------------|
 D|--5-x16-|--2-x16-|--5-x8---7-x8-|--9-x15--9>---|
 A|--5-----|--2-----|--5------7----|--9------9>---|
 D|--5-----|--2-----|--5------7----|--9------9>---|

 


 


 


 [RIFF 2 / 3:07] 


 Start softly; gradually rise in volume x4


 

 
 e|----------------------------------|------------------------------------|
 B|--3------3----3-----2------2----2-|--4------4----4-----3------3----2---|
 G|--4----4------4-----2----2------2-|--4----4------4-----4----4------2---|
 D|--5---5-5-5---5-----2---2-2-2---2-|--4---4-4-4---4-----5---5-5-5---2---|
 A|----------------------------------|------------------------------------|
 D|----------------------------------|------------------------------------|

 


 


 


 [RIFF 1c / 3:43] 


 

 
 e|-----------------------------------|
 B|--0------0----0-----0------0----0--|
 G|--1----1------1-----1----1------1--|
 D|--2---2-2-2---2-----2---2-2-2---2--|
 A|-----------------------------------|
 D|-----------------------------------|

 


 


 fin.


 

 
 e|--------------------------------0---|
 B|--0------0----0-----0------0----0---|
 G|--1----1------1-----1----1------1---|
 D|--2---2-2-2---2-----2---2-2-2---2---|
 A|------------------------------------|
 D|------------------------------------|


Important: The song above is NOT stored on the Chordie server. The original song is hosted at www.guitartabs.cc. Chordie works as a search engine and provides on-the-fly formatting. Chordie does not index songs against artists'/composers' will. To remove this song please click here.

This song is displayed as text-only. Transposing and tuning is only available for chordpro-songs.
Rate #1 of 2 versions

Login - add to songbook

SHARE PAGE  



You need to log in to post comments