Guitar Tabs, Chords and Lyrics
Major upgrade!! After one year development the new version of Chordie is now online! Please give feedback.


Salesman at the Day of the Parade  Rogue Wave

 
 -------------------------------------------------------------------------------

SALESMAN AT THE DAY OF THE PARADE - Rogue Wave
 
 -------------------------------------------------------------------------------

Tabbed by: Adam B.
Tuning: Standard
Capo: 2nd fret
Verse:
[B] [E] [B] [E] [D] [F#m]  
 
 e |---2----0----2----0----2----2--|
 B |---2----0----2----0----3----2--|
 G |---4----1----4----1----2----2--|
 D |---2----2----2----2----0----4--|
 A |---2----2----2----2----x----4--|
 E |---x----0----x----0----x----2--|

B E B E...
I'm so sor[D]ry for what [F#m]I've done[B] [E] [B] [E]
I went in [D]to it lik[F#m]e a man[B] [E] [B] [E]
Now the only t[D]hing on my ski[F#m]n[B] [E] [B] [E]
Is some beac[D]h blown images[F#m] [B] [E] [B] [E]
Chorus:
C#m A E B* C#m C#m B B7 B B7 B B7
 
 e |---4----5----7----2- ---4----4----2----2----2----2----2----2-----|
 B |---5----5----7----2- ---5----5----2----4----2----4----2----4-----|
 G |---4----6----9----4- (x2) ---4----4----2----2----2----2----2----2---|
 D |---6----7----9----4- ---6----6----4----4----4----4----4----4-----|
 A |---4----7----7----2- ---4----4----2----2----2----2----2----2-----|
 E |---x----5----x----x- ---x----x----x----x----x----x----x----x-----|

*It also sounds alright if you play this B as:
e |---x--
B |---x--
G |---8--|
D |---9--|
A |---6--|
E |---x--
[C#m] Every[A] corner, t[E]hat you ha?..[B]ve[C#m]
You don't miss me[A], but I really do[E]n't mi?.nd[B] [C#m]
Don't float around g[B]irl[B7] [B]
It'll [B7]be al...[B]right[B7]
Verse 2:
B E B E...
And the harde[D]st thing that I've [F#m]done[B] [E] [B] [E]
Is l[D]aying down with s[F#m]omeone[B] [E] [B] [E]
And the idiot[D]s in De[F#m]troit[B] [E] [B] [E]
D F#m (hold this chord)
Well they've all gone sour...
Everyone[B] lies[E] [B] [E]
Chorus 2 (5 sets of B > B7s, instead of 3 to account for extra "It'll be alright"):
[C#m] Every[A] corner, t[E]hat you ha?..[B]ve[C#m]
You really don't [A]miss me, but I really[E] don?t mind[B] [C#m]
Don't float around g[B]irl[B7] [B]
It'll [B7]be al...[B]right[B7] [B]
It'll [B7]be al...[B]right[B7]
Finish With:
B E B E...
I'm so sor[D]ry for what [F#m]I've done[B] [E] [B] [E]
I'm so sor[D]ry for what [F#m]I've done[B] [E] [B] [E]
I'm so sor[D]ry for what [F#m]I've done[B] [E] [B] [E]
I'm so sor[D]ry for what [F#m]I've done[B] [E] [B] [E]

Important: The song above is NOT stored on the Chordie server. The original song is hosted at www.guitartabs.cc. Chordie works as a search engine and provides on-the-fly formatting. Chordie does not index songs against artists'/composers' will. To remove this song please click here.

Text color:
Chord color:
Chord grids: 
Font size:    
Page size: 

A B B7 C#m D E F#m
Rate #1 of 5 versions

Login - add to songbook

SHARE PAGE  




You need to log in to post comments