Guitar Tabs, Chords and Lyrics
Server problems seems to be fixed. Chordie has been experiencing problems with songs disappearing. These issues now seems to be fixed, but still verifying the fix. If you find anything strange, please email admin@chordie.com.


Monkey Man   The Rolling Stones

 
 e|--------------------------------|
 B|--------------------------------|
 G|--------------NO----------------|
 D|------------GUITAR--------------|
 A|--------------------------------|
 E|--------------------------------|

 


 [1+2+3+4+1+2+3+4+1+2+3+4+1+2+3+4+]  


 Intro (part two)


 

 
 e|5555-5x55555-5x55555-5x5------55|
 B|8888-8x87777-7x76666-6x6------55|
 G|--------------------------------|
 D|--------------------------------|
 A|--------------------------------|
 E|--------------------------------|

 


 [1+2+3+4+1+2+3+4+1+2+3+4+1+2+3+4+]  


 Intro (part three)


 e|555-x5x5555-x5x5555-x5x55-5x5x55|


 B|888-x8x8777-x7x7666-x6x65-5x5x55|


 G|555-x5x5555-x5x5555-x5x56-6x6x66|


 

 
 D|----------------777-x7x77-7x7x77|
 A|------------------------5-5x5x55|
 E|--------------------------------|

 


 [1+2+3+4+1+2+3+4+1+2+3+4+1+2+3+4+]  


 Verse


 


 F# riff (do a D formation)


 e|2h3p2h3p2h3p2h3p|


 

 
 B|3---3---3---3---|
 G|2---2---2---2---|
 D|----------------|
 A|----------------|
 E|----------------|

 


 [1+2+3+4+1+2+3+4+]  


 C# riff (do an A formation)


 

 
 e|----------------|
 B|----3333----3333|
 G|--2-2255--2-2252|
 D|--2-4444--2-4444|

 


 a|340-0000340-0000|


 

 
 E|----------------|

 


 [1+2+3+4+1+2+3+4+]  


 F# riff (do a D formation)


 e|2h3p2h3p2h3p2h3p|


 

 
 B|3---3---3---3---|
 G|2---2---2---2---|
 D|----------------|
 A|----------------|
 E|----------------|

 


 [1+2+3+4+1+2+3+4+]  


 C# riff (do an A formation)


 

 
 e|----------------|
 B|----3333----3333|
 G|--2-2255--2-2252|
 D|--2-4444--2-4444|

 


 a|340-0000340-0000|


 

 
 E|----------------|

 


 [1+2+3+4+1+2+3+4+]  


 Chorus


 


 a and B riff


 e|1-1x1x113-3x3x33|


 B|1-1x1x113-3x3x33|


 G|2-2x2x224-4x4x44|


 D|3-3x3x335-5x5x55|


 a|3-3x3x335-5x5x55|


 e|1-1x1x113-3x3x33|


 [1+2+3+4+1+2+3+4+]  


 C# riff (do an A formation)


 

 
 e|----------------|
 B|----3333----3333|
 G|--2-2255--2-2252|
 D|--2-4444--2-4444|

 


 a|340-0000340-0000|


 

 
 E|----------------|

 


 [1+2+3+4+1+2+3+4+]  


 a and B riff


 e|1-1x1x113-3x3x33|


 B|1-1x1x113-3x3x33|


 G|2-2x2x224-4x4x44|


 D|3-3x3x335-5x5x55|


 a|3-3x3x335-5x5x55|


 e|1-1x1x113-3x3x33|


 [1+2+3+4+1+2+3+4+]  


 C# riff 2 (do an A formation)


 

 
 e|----------------|

 


 B|----33333333-333|


 G|--2-22555555-552|


 D|--2-44444444-444|


 a|340-00000000-000|


 

 
 E|----------------|

 


 [1+2+3+4+1+2+3+4+]  


 Verse


 


 F# riff (do a D formation)


 e|2h3p2h3p2h3p2h3p|


 

 
 B|3---3---3---3---|
 G|2---2---2---2---|
 D|----------------|
 A|----------------|
 E|----------------|

 


 [1+2+3+4+1+2+3+4+]  


 C# riff 2 (do an A formation)


 

 
 e|----------------|

 


 B|----33333333-333|


 G|--2-22555555-552|


 D|--2-44444444-444|


 a|340-00000000-000|


 

 
 E|----------------|

 


 [1+2+3+4+1+2+3+4+]  


 F# riff (do a D formation)


 e|2h3p2h3p2h3p2h3p|


 

 
 B|3---3---3---3---|
 G|2---2---2---2---|
 D|----------------|
 A|----------------|
 E|----------------|

 


 [1+2+3+4+1+2+3+4+]  


 C# riff (do an A formation)


 

 
 e|----------------|
 B|----3333----3333|
 G|--2-2255--2-2252|
 D|--2-4444--2-4444|

 


 a|340-0000340-0000|


 

 
 E|----------------|

 


 [1+2+3+4+1+2+3+4+]  


 Chorus


 


 a and B riff


 e|1-1x1x113-3x3x33|


 B|1-1x1x113-3x3x33|


 G|2-2x2x224-4x4x44|


 D|3-3x3x335-5x5x55|


 a|3-3x3x335-5x5x55|


 e|1-1x1x113-3x3x33|


 [1+2+3+4+1+2+3+4+]  


 C# riff (do an A formation)


 

 
 e|----------------|
 B|----3333----3333|
 G|--2-2255--2-2252|
 D|--2-4444--2-4444|

 


 a|340-0000340-0000|


 

 
 E|----------------|

 


 [1+2+3+4+1+2+3+4+]  


 a and B riff


 e|1-1x1x113-3x3x33|


 B|1-1x1x113-3x3x33|


 G|2-2x2x224-4x4x44|


 D|3-3x3x335-5x5x55|


 a|3-3x3x335-5x5x55|


 e|1-1x1x113-3x3x33|


 [1+2+3+4+1+2+3+4+]  


 C# riff 2 (do an A formation)


 

 
 e|----------------|

 


 B|----33333333-333|


 G|--2-22555555-552|


 D|--2-44444444-444|


 a|340-00000000-000|


 

 
 E|----------------|

 


 [1+2+3+4+1+2+3+4+]  


 Solo


 


 C# riff (do an A formation)


 

 
 e|----------------|
 B|----3333----3333|
 G|--2-2255--2-2252|
 D|--2-4444--2-4444| x3

 


 a|340-0000340-0000|


 

 
 E|----------------|

 


 [1+2+3+4+1+2+3+4+]  


 C# riff 2 (do an A formation)


 

 
 e|----------------|

 


 B|----33333333-333|


 G|--2-22555555-552|


 D|--2-44444444-444|


 a|340-00000000-000|


 

 
 E|----------------|

 


 [1+2+3+4+1+2+3+4+]  


 C# riff 3 (do an A formation)


 

 
 e|--------|

 


 B|3333-332|


 G|5555-522|


 D|4444-442| x7


 a|0000-000|


 

 
 E|--------|

 


 [1+2+3+4+]  


 C# riff (do an A formation)


 

 
 e|----------------|
 B|----3333----3333|
 G|--2-2255--2-2252|
 D|--2-4444--2-4444| x3

 


 a|340-0000340-0000|


 

 
 E|----------------|

 


 [1+2+3+4+1+2+3+4+]  


 C# riff 2 (do an A formation)


 

 
 e|----------------|

 


 B|----33333333-333|


 G|--2-22555555-552|


 D|--2-44444444-444|


 a|340-00000000-000|


 

 
 E|----------------|

 


 [1+2+3+4+1+2+3+4+]  


 C# riff 3 (do an A formation)


 

 
 e|--------|

 


 B|3333-332|


 G|5555-522|


 D|4444-442| x3


 a|0000-000|


 

 
 E|--------|

 


 [1+2+3+4+]  


 Bridge


 


 e a and B riff


 

 
 e|--------3-3--3331-1--1113-3--333|
 B|5-5--6663-3--3331-1--1113-3--333|
 G|5-5--5554-4--4442-2--2224-4--444|
 D|5-5--5555-5--5553-3--3335-5--555| x4
 A|3-3--3335-5--5553-3--3335-5--555|
 E|--------3-3--3331-1--1113-3--333|

 


 [1+2+3+4+1+2+3+4+1+2+3+4+1+2+3+4+]  


 Outro


 


 C# riff (do an A formation)


 

 
 e|----------------|
 B|----3333----3333|
 G|--2-2255--2-2252|
 D|--2-4444--2-4444| x5

 


 a|340-0000340-0000|


 

 
 E|----------------|

 


 [1+2+3+4+1+2+3+4+]  


 C# riff 2 (do an A formation)


 

 
 e|----------------|

 


 B|----33333333-333|


 G|--2-22555555-552|


 D|--2-44444444-444|


 a|340-00000000-000|


 

 
 E|----------------|

 


 [1+2+3+4+1+2+3+4+]  


 C# riff 3 (do an A formation)


 

 
 e|--------|

 


 B|3333-332|


 G|5555-522|


 D|4444-442| x3


 a|0000-000|


 

 
 E|--------|

 


 [1+2+3+4+]  


 C# riff (do an A formation)


 

 
 e|----------------|
 B|----3333----3333|
 G|--2-2255--2-2252|
 D|--2-4444--2-4444| x3

 


 a|340-0000340-0000|


 

 
 E|----------------|

 


 [1+2+3+4+1+2+3+4+]  


 C# riff 2 (do an A formation)


 

 
 e|----------------|

 


 B|----33333333-333|


 G|--2-22555555-552|


 D|--2-44444444-444|


 a|340-00000000-000|


 

 
 E|----------------|

 


 [1+2+3+4+1+2+3+4+]  


 C# riff 3 (do an A formation)


 

 
 e|--------|

 


 B|3333-332|


 G|5555-522|


 D|4444-442| x4


 a|0000-000|


 

 
 E|--------|

 


 [1+2+3+4+]  


 C# riff (do an A formation)


 

 
 e|----------------|
 B|----3333----3333|
 G|--2-2255--2-2252|
 D|--2-4444--2-4444| Repeat until fade

 


 a|340-0000340-0000|


 

 
 E|----------------|


Important: The song above is NOT stored on the Chordie server. The original song is hosted at www.guitartabs.cc. Chordie works as a search engine and provides on-the-fly formatting. Chordie does not index songs against artists'/composers' will. To remove this song please click here.

This song is displayed as text-only. Transposing and tuning is only available for chordpro-songs.
Rate #1 of 13 versions

Jango Player

Login - add to songbook

SHARE PAGE  




You need to log in to post comments