Guitar Tabs, Chords and Lyrics
Server problems seems to be fixed. Chordie has been experiencing problems with songs disappearing. These issues now seems to be fixed, but still verifying the fix. If you find anything strange, please email admin@chordie.com.


Stars  Roxette

Stars - Roxette 1999
album: Have a nice day
tabbed 2nd of Aug 1999 by Ducky (mailto: hehehe@quackquack.com)
Another song that isnt really tabmaterial hehehe... :P
but Per Gessle surely knows his hit-maiking-stuff hehehe...
Maybe you wanted it transposed, (did you even want it?),
but it's a dance song, and most dancesongs seem to be in Cm... :))
(Intro)
[Cm] [Eb/C] [Bb/C] [F/C]  
 
 E||--3----------------|--3----------------|--6-(6)------------|--8-----------------|
 B||--4----------------|--4----------------|--6-(3)------------|--10----------------|
 G||--5----------------|--3----------------|--7-(3)------------|--10----------------|
 D||--5----------------|--5----------------|----(3)------------|--10----------------|
 A||--3----------------|--3----------------|----(3)------------|--8-----------------|
 E||-------------------|-------------------|--8----------------|--8-----------------|

(alternative)
(Intro part 2)
[Cm] [Eb/C] [Bb/C]  
 
 --------------------------|--------------------------|--------------------------|
 --------------------------|--------------------------|--------------------------|
 ----5-7-8--5----5-7-8--5--|----5-7-8--5----5-7-8--5--|----5-7-8--5----5-7-8--5--|
 --------------------------|--------------------------|--------------------------|
 --------------------------|--------------------------|--------------------------|
 --------------------------|--------------------------|--------------------------|

(2nd. Hey wow Yeaah...)
(Bridge)
[F/C] [Cm] [Eb]  
 
 --------------------------||---8----6--------------|----------------------|
 --------------------------||-------------8----6----|----------------------|
 ----5-7-8--5----5-7-8--5--||*----------------------|--8----7----5----3----|
 --------------------------||*----------------------|----------------------|
 --------------------------||-----------------------|----------------------|
 --------------------------||-----------------------|----------------------|

(Verse 1)
[Bb] [F] [Cm]  
 
 -------------------|-----------------------||---3---------------------|
 -------------------|-----------------------||---4---------------------|
 --3----------------|----------5-7-8--5----*||*--5---------------------|
 -------------------|----------------------*||*--5---------------------|
 -------------------|-----------------------||---3---------------------|
 -------------------|-----------------------||-------------------------|

(1st. Hey Wow Yeah (You) keep on walking on the
[Eb/C] [Bb/C] [F/C] [Cm]  
 
 --3----------------|-------------------|--8--------------------||---8-----------------|
 --4----------------|--3----------------|--10-------------------||---8-----------------|
 --3----------------|--3----------------|--10------------------*||*--8-----------------|
 --5----------------|--3----------------|--10------------------*||*--10----------------|
 --3----------------|--3----------------|--8--------------------||---10----------------|
 -------------------|-------------------|--8--------------------||---8-----------------|

otherside... otherside... otherside (Wherever you) go... Im going with
( Tab from: http://www.guitartabs.cc/tabs/r/roxette/stars_tab.html )
Eb Bb Ab NC
 
 --6----------------|--6----------------|--4-----------------||------------------|
 --8----------------|--6----------------|--4-----------------||------------------|
 --8----------------|--7----------------|--5----------------*||------------------|
 --8----------------|--8----------------|--6----------------*||------------------|
 --6----------------|--8----------------|--6-----------------||------------------|
 -------------------|--6----------------|--4-----------------||------------------|

you, shouldnt you know, Im bound to follow... (And the)
(Chorus)
[Eb] [Eb] [Bb] [Bb]  
 
 --6----------------|--6----------------|--6----------------|--6---------------|
 --8----------------|--8----------------|--6----------------|--6---------------|
 --8----------------|--8----------------|--7----------------|--7---------------|
 --8----------------|--8----------------|--8----------------|--8---------------|
 --6----------------|--6----------------|--8----------------|--8---------------|
 -------------------|-------------------|--6----------------|--6---------------|

Stars will show, where the waters flow, where the
[Cm] [Ab] [Cm] [Bb]  
 
 --3----------------|--4----------------|--3----------------|--1----------------||
 --4----------------|--4----------------|--4----------------|--3----------------||
 --5----------------|--5----------------|--5----------------|--3----------------||
 --5----------------|--6----------------|--5----------------|--3----------------||
 --3----------------|--6----------------|--3----------------|--1----------------||
 -------------------|--4----------------|-------------------|-------------------||

gardens grow, that's where I'll meet you...
 
 |---------------------------------------------------------------------------------------|

Lyrics...
You keep on walkin' on the other side, other side, other side...
You keep on walkin' on the other side, other side, other side...
Wherever you go, I'm going with you, shouldn't you know I'm bound to follow...
Whatever you say, whatever you do, I give you a clue, I'm gonna follow...
Chorus
And the stars will show, where the waters flow,
Where the gardens grow, that's where I'll meet you...
Why don't you let me, let me come along, nah nah nah, nah nah nah!
Why don't you open, make me come along, nah nah nah, nah nah nah!
Wherever you go, I'm going for you, oh I was truly born to follow...
Like fire and wood and paper and glue, only a few were born to follow...
And the stars will show, where the waters flow,
where the gardens grow, that's where I'll meet you...
And the sun will glow, melting all the snow,
knowing all I know, that's where I'll meet you...
Stars will show where the waters flow,
where the gardens grow that's where I'll meet you...
And the sun will glow melting all the snow,
knowing all I know that's where I'll meet you...
And the stars will show, every breeze will blow,
knowing all I know that's where I'll meet you...
That's where I'll meet you... Ooh...
 
 |---------------------------------------------------------------------------------------|

...and the song from the beginning to the end...
(chord definitions are found in the tab above, except for F -133211- )
Intro : | Cm | Eb/C | Bb/C | F/C |
Intro p. 2: | Cm | Eb/C | Bb/C | F/C |
Bridge : |: Cm | Eb | Bb | F :|
Verse : |: Cm | Eb/C | Bb/C | F/C :|
|: Cm | Eb | Bb | F :| Nc |
Chorus 1 : | Eb | Eb | Bb | Bb |
| Cm | Ab | Cm | Bb |
Bridge
Verse
Chorus 2 : |: Eb | Eb | Bb | Bb |
| Cm | Ab | Cm | Bb :|
Break : |: Nc :| (Four bars)
Intro p. 2
Bridge
Chorus 3 : |: Chorus 1. (three times) :|
Bridge
End : |...Cm...|
 
 |---------------------------------------------------------------------------------------|

Well, that should be it... any questions... mailto: hehehe@quackquack.com
Be well... Ducky

Important: The song above is NOT stored on the Chordie server. The original song is hosted at www.guitartabs.cc. Chordie works as a search engine and provides on-the-fly formatting. Chordie does not index songs against artists'/composers' will. To remove this song please click here.

Text color:
Chord color:
Chord grids: 
Font size:    
Page size: 

Ab Bb Bb/C Cm Eb Eb/C F F/C
Rate #1 of 5 versions

Jango Player

Login - add to songbook

SHARE PAGE  



You need to log in to post comments