Guitar Tabs, Chords and Lyrics
Login is temporarily disabled for some users. Do not panic. Will be back in an hour or two. DO NOT REREGISTER!!


A View to Save   Rufio

 
 G|-4-7-6-------4-7-6-------|
 D|-------7-4-7-------7-4-7-|
 A|-------------------------|
 E|-------------------------|

 


 


 Verse


 "See her move"


 2.


 

 
 G|---------------------------------|
 D|--40--2---40--2------------------|
 A|-2---2-4-2---2-4--50--75--50--75-|--x2
 E|-----------------3---3---3---3---|

 


 


 "So watch.."


 3.


 

 
 G|-----------------------------|
 D|-----------------------------|
 A|-222222-222222---------------|--x2
 E|---------------333333-333333-|

 


 


 Pre-Chorus


 4.


 

 
 G|-4-7-6-------4-7-6-------|
 D|-------7-4-7-------7-4-7-|
 A|-------------------------|
 E|-------------------------|

 


 


 Chorus


 "Kill the lights"


 5.


 

 
 G|--------------------------------------------------------|
 D|--------------------------------------------------------|
 A|-555555-555777--------777555-222222-222222-444000-------|
 E|---------------555555----------------------------333555-|

 


 


 "Over and over you pull me.."


 6.


 

 
 G|-------------------------4-7-6-------4-7-6-------|
 D|-------------------------------7-4-7-------7-4-7-|
 A|---------222-555---------------------------------|
 E|-333-555---------333-555-------------------------|

 


 


 Verse


 "Like a drug"


 7.


 

 
 G|---------------------------------|
 D|--40--2---40--2------------------|
 A|-2---2-4-2---2-4--50--75--50--75-|--x2
 E|-----------------3---3---3---3---|

 


 


 "Im slipping away tonight"


 8.


 

 
 G|---------------------------------------------------------|
 D|---------------------------------------------------------|
 A|-2222--222-000---------------2222--222-000---------------|
 E|---------------3333--333-555---------------3333--333-555-|

 


 


 Pre-Chorus


 9.


 

 
 G|-4-7-6-------4-7-6-------|
 D|-------7-4-7-------7-4-7-|
 A|-------------------------|
 E|-------------------------|

 


 


 Chorus


 "Kill the ligths"


 10.


 

 
 G|--------------------------------------------------------|
 D|--------------------------------------------------------|
 A|-555555-555777--------777555-222222-222222-444000-------|
 E|---------------555555----------------------------333555-|

 


 


 "Over and over you pull me.."


 11.


 

 
 G|-------------------------|
 D|-------------------------|
 A|---------222-555---------|
 E|-333-555---------333-555-|

 


 


 12.


 

 
 G|---------------------------------------------------------|
 D|---------------------------------------------------------|
 A|-2~--2-5-4-0---2~--2-5-4-0-------2-5-4-0-------2-5-4-0---|--x2
 E|-------------2-------------2-3~----------2-3~----------2-|

 


 


 "Youre the face of my addiction.."


 13. 14.


 

 
 G|---------------------------------------------| |-----|
 D|---------------------------------------------| |-----|
 A|---------------------------------------------|--x2 |-----|
 E|-0000000000-2222222222-3333333333-5555555555-| |-7\1-|

 


 


 Chorus


 "Kill the ligths"


 14.


 

 
 G|--------------------------------------------------------|
 D|--------------------------------------------------------|
 A|-555555-555777--------777555-222222-222222-444000-------|
 E|---------------555555----------------------------333555-|

 


 


 "Over and over you pull me.."


 15.


 

 
 G|-------------------------|
 D|-------------------------|
 A|---------222-555---------|
 E|-333-555---------333-555-|

 


 


 "Kill the ligths.."


 16.


 

 
 G|--------------------------------------------------------|
 D|--------------------------------------------------------|
 A|-555555-555777--------777555-222222-222222-444000-------|
 E|---------------555555----------------------------333555-|

 


 


 "Over and over you pull me.."


 17.


 

 
 G|---------------------------------------------------------|
 D|---------------------------------------------------------|
 A|---------222-555---------222-555---------222-555---------|
 E|-333-555---------333-555---------333-555---------333-555-|

 


 


 "Ahh.."


 19.


 

 
 G|---------------------------------------------------------|
 D|---------------------------------------------------------|
 A|-2222--222-000---------------2222--222-000---------------|--x2
 E|---------------3333--333-555---------------3333--333-555-|


Important: The song above is NOT stored on the Chordie server. The original song is hosted at www.guitartabs.cc. Chordie works as a search engine and provides on-the-fly formatting. Chordie does not index songs against artists'/composers' will. To remove this song please click here.

This song is displayed as text-only. Transposing and tuning is only available for chordpro-songs.
Rate #1 of 1 versions

Login - add to songbook

SHARE PAGE  




You need to log in to post comments