Guitar Tabs, Chords and Lyrics
Login is temporarily disabled for some users. Do not panic. Will be back in an hour or two. DO NOT REREGISTER!!


Dipshit  Rufio

Perhaps I suppose
2001 Nitro Records
Submitted by: paramore_fans@yahoo.com
This is one of the fastest rufio songs. so play it as fast as you can.
Chords used:
D - xx0232
A - x02220
Bm - x24432
D/F# - 2x023x
G - 320033
A/C# - x4222x
Intro:
 
 e|---------------|-----------------|----------------|-----------
 B|---------------|-----------------|----------------|-----------
 G|-7-7-----------|------4h6h7p6----|-4-4----------2-|-----------
 D|-7-7------4---7|-7-7----------7--|-4-4--0h2h4p0---|----------- (x4)
 A|-5-5--5h7---5--|-7-7-------------|-2-2------------|-5-5-5-5-5-
 E|---------------|-5-5-------------|----------------|-2-3-3-3-3-
 Guitar 2: D--A--Bm--D/F#-G (x4)
 Bm-A-G; Bm-A-D-G; Bm-A-G; Bm--A

Verse 1:
[G] He said you [A]want my heart in [D]yours
[A/C#-D--A/C#-Bm]  
 
 For some popu----la-ri---ty 

But wh[D/F#]at am [G]i?
She said i [A]want you by my [D]side
To im[A/C#]press [D]all [A/C#]a----[Bm]bove
But it's [D/F#]true [G]love..
Use your [A]mind you dipshit[Bm-A]
I'm [G]wonde[Bm]ring [A]why not [D]just [G]let me [Bm-A-G-Bm]live on my [G]own?
[A]On my own...
Chorus:
[D] Wrong
[G] [Bm]What they [A]say is [D]wrong
[G] Don't s[Bm]truggle waste your [A]energy, they're [D]wrong
[G] [Bm]What they [A]say is [D]wrong
[G] And this [Bm]silence calms my [A]ears
 
 e|---------------|-----------------|---------------|-----------
 B|---------------|-----------------|---------------|-----------
 G|-7-7-----------|------4h6h7------|-4-4-----------|-----------
 D|-7-7------4---7|-7-7--------7p5p4|-4-4------4---7|----------- (x2)
 A|-5-5--5h7---5--|-7-7-------------|-2-2--5h7---5--|-5-5-5-5-5-
 E|---------------|-5-5-------------|---------------|-2-3-3-3-3-
 Guitar 2: D--A--Bm--D/F#-G (x2) then Bm-A-D-G

Verse 2:
[G] Over and [A]over i hear your [D]voice cal[A/C#]ling [D]out [A/C#]my [Bm]name
Told [D/F#]jealou[G]sy
You're adding [A]questions to my [D]fame
Try to fi[A/C#]gure [D]out [A/C#]our [Bm]lives
It's us you [D/F#]want to [G]live
Hold your [A]tongue you dipshit[Bm-A]
I'm [G]wonde[Bm]ring [A]why not [D]just [G]let me [Bm-A-G-Bm]live on my [G]own?
[A]On my own...
(Repeat Chorus)
[Bm] You're suffering[G], is running thin
[Bm] There's changes [D]in your [A]face and
[Bm] Asking for love[G], isn't too much
[Bm] Get a life and get another [A]one to talk about
(Repeat Chorus)
 
 Outro: D--G--Bm--A (x2) D(Hold)


Important: The song above is NOT stored on the Chordie server. The original song is hosted at www.guitartabs.cc. Chordie works as a search engine and provides on-the-fly formatting. Chordie does not index songs against artists'/composers' will. To remove this song please click here.

Text color:
Chord color:
Chord grids: 
Font size:    
Page size: 

A A/C# Bm D D/F# G
Rate #1 of 2 versions

Jango Player

Login - add to songbook

SHARE PAGE  




You need to log in to post comments