Guitar Tabs, Chords and Lyrics
Login is temporarily disabled for some users. Do not panic. Will be back in an hour or two. DO NOT REREGISTER!!


Never Learn   Rufio

 
 G|---------4-6-8-9-9-8-8-6------------------------|
 D|-------6------------------7-7-7---7-9-9-9-9-----|
 A|-4-4-4--------------------------7-----------9-7-|--x4
 E|------------------------------------------------|

 


 


 Verse


 "Wait til you open that thought..."


 2.


 

 
 G|-----------------------------------------|
 D|-----66-6--7-6-4-2-----------------------|
 A|-44-4--------------4-2-0x--2-2-2x-0-0-0x-|
 E|-----------------------------------------| 

 


 |


 |--x2


 3. |


 

 
 G|-----------------------------------------|
 D|-----66-6--4-2---7-6---------------------|
 A|-44-4----------4-----4-2x--2-2-2x-0-0-0x-|
 E|-----------------------------------------|

 


 


 Pre-Chorus


 "Let go, let go..."


 4.


 

 
 G|---------------------|
 D|---------------------|
 A|---------------------|

 


 E|-2222-2222-4444-7777-|


 


 Chorus


 "Will you save yourself the doubt?"


 5.


 

 
 G|-----------------------------------------------------------------|
 D|-------------------------2-1-2-4-------------------------2-1-2-4-|
 A|-0-00-00-2-22-22-4-44-44---------0-00-00-2-22-22-4-44-44---------|--x2
 E|-----------------------------------------------------------------|

 


 


 Outro


 6.


 

 
 G|-------------|
 D|-------------|
 A|-2-2-4-6-6-6-|
 E|-------------|

 


 


 7.


 

 
 G|---------4-6-8-9-9-8-8-6------------------------|
 D|-------6------------------7-7-7---7-9-9-9-9-----|
 A|-4-4-4--------------------------7-----------9-7-|--x3
 E|------------------------------------------------|

 


 


 Verse


 "Listen, understand, understand..."


 8.


 

 
 G|------------------------------------------------------------------|
 D|------------------------------------------------------------------|
 A|-44-444-444-444-422-222-200-000-044-444-444-444-422-222-200-000-0-|
 E|------------------------------------------------------------------|

 


 


 "Poison are the words you inject..."


 9.


 

 
 G|-------------------------------------------------|
 D|----------2-4----------2-4----------2-4--4-2-4-2-|
 A|-4~-0-2-4-----4~-0-2-4-----2~-0-2-4--------------|--x2
 E|-------------------------------------------------|

 


 


 Pre-Chorus


 "Let go, let go..."


 10.


 

 
 G|---------------------------------|
 D|---------------------------------|
 A|-------------------------2-2-2-2-|
 E|-2-2-2-2-2-2-2-2-4-4-4-4---------|

 


 


 Chorus


 "Will you save yourself the doubt?"


 11.


 

 
 G|-----------------------------------------------------------------|
 D|-------------------------2-1-2-4-------------------------2-1-2-4-|
 A|-0-00-00-2-22-22-4-44-44---------0-00-00-2-22-22-4-44-44---------|--x2
 E|-----------------------------------------------------------------|

 


 


 Outro


 12.


 

 
 G|---------------------------------------------|
 D|---------------------------------------------|
 A|-0~-------------------------------2~----2-2x-|
 E|---------------------------------------------|

 


 


 Bridge


 13.


 

 
 G|-------------------------------------|
 D|-------------------------------------| Just play till Chorus,
 A|-4~-------6~-2-2-2-0~-------2~---1-2-| Im too lazy to count...
 E|----0-0-0-------------0-0-0----0-----|

 


 


 2:27


 14.


 

 
 G|-----------------|
 D|-----------------|
 A|-1-2-2-2-1-2-2-2-|
 E|-----------------|

 


 


 Chorus


 "Will you save yourself the doubt?"


 15.


 

 
 G|-----------------------------------------------------------------|
 D|-------------------------2-1-2-4-------------------------2-1-2-4-|
 A|-0-00-00-2-22-22-4-44-44---------0-00-00-2-22-22-4-44-44---------|--x2
 E|-----------------------------------------------------------------|

 


 


 Outro


 16.


 

 
 G|---44--44-4x---44--44-4--6~--|
 D|-----------------------------|
 A|-22--22--2---22--22--2-------|
 E|-----------------------------|

 


 


 Bridge


 17.


 

 
 G|---------------------------------------------------------------------------------|
 D|---------------------------------------------------------------------------------|
 A|-4~---1-2-4-6~-2-2-2-0~-------2~-----1-2-4~---1-2-4-6~-2-2-2-0~-------2~-----1-2-|
 E|----0-------------------0-0-0----0-0--------0-------------------0-0-0----0-0-----|


Important: The song above is NOT stored on the Chordie server. The original song is hosted at www.guitartabs.cc. Chordie works as a search engine and provides on-the-fly formatting. Chordie does not index songs against artists'/composers' will. To remove this song please click here.

This song is displayed as text-only. Transposing and tuning is only available for chordpro-songs.
Rate #1 of 1 versions

Jango Player

Login - add to songbook

SHARE PAGE  



You need to log in to post comments