Guitar Tabs, Chords and Lyrics
Login is temporarily disabled for some users. Do not panic. Will be back in an hour or two. DO NOT REREGISTER!!


Questions and Answers   Rufio

 
 G|-------------------------------------------------------|
 D|-------------------------------------------------------|
 A|-------------------------------------------------------|
 D|-00000000-00000000-44444444-44444444-00000000-00000000-|

 


 


 Verse


 "Im searching for answers..."


 2.


 

 
 G|---------------------------------------------------------------|
 D|---------------------------------------------------------------|
 A|---------------------------------------------------------------|
 D|-44----44-44----00----00-00----44----44-44----00----00-00----2-|

 


 


 "So much to offer..."


 3.


 

 
 G|---------------------------------------------------------------|
 D|---------------------------------------------------------------|
 A|---------------------------------------------------------------|
 D|-44----44-44----00----00-00----2~-------------0~---------------|

 


 


 Chorus


 "Where are words that comfort?"


 4.


 

 
 G|-----------------------------------------|
 D|-----------------------------------------|
 A|-0000-0000-----------------00------------|--x2
 D|-----------2222-2222-444-22--2-0000-0000-|

 


 


 Outro


 5.


 

 
 G|--6--9~---6--7~--7-6-4-|
 D|-4-4-----4-4-----------|
 A|-----------------------|--x3
 D|-----------------------|

 


 


 Verse


 "If lighting a candle..."


 6.


 

 
 G|---------------------------------------------------------------|
 D|---------------------------------------------------------------|
 A|---------------------------------------------------------------|
 D|-44----44-44----00----00-00----44----44-44----00----00-00----2-|

 


 


 "Some days are better..."


 7.


 

 
 G|---------------------------------------------------------------|
 D|---------------------------------------------------------------|
 A|---------------------------------------------------------------|
 D|-44----44-44----00----00-00----2~-------------0~---------------|

 


 


 Chorus


 "Where are words that comfort..."


 8.


 

 
 G|-----------------------------------------|
 D|-----------------------------------------|
 A|-0000-0000-----------------00------------|--x2
 D|-----------2222-2222-444-22--2-0000-0000-|

 


 


 Bridge


 9.


 

 
 G|------------------|
 D|-------2----------|
 A|---4-2---4--------|--x2
 D|-4----------2-4-4-|

 


 


 10.


 

 
 G|------------------------------------------------------------------|
 D|---2~--------2-----------------------------------------2----------|
 A|-4-------4-2---4-----------7\0---------------------4-2---4--------|
 D|-------4----------2-4-4--------00000000-22222222-4----------2-4-4-|

 


 


 "Our questions arent answered..."


 11.


 

 
 G|------------------------------------|
 D|-------------------------2----------|
 A|---------------------4-2---4--------|--x2
 D|-00000000-22222222-4----------2-4-4-|

 


 


 12.


 

 
 G|-------------------|
 D|-------------------|
 A|-------------------|
 D|-0-0~-----2-2~-2-2-|

 


 


 Verse


 "If lighting a candle..."


 13.


 

 
 G|-----------------------------------------|
 D|-----------------------------------------|
 A|-------------------------------0~-2~-----|
 D|-4~--------0~--------4~--------------0~x-|

 


 


 Chorus


 "Where are words that comfort?"


 14.


 

 
 G|-----------------------------------------|
 D|-----------------------------------------|
 A|-0000-0000-----------------00------------|--x2
 D|-----------2222-2222-444-22--2-0000-0000-|

 


 


 "Say goodbye..."


 15.


 

 
 G|---------------------|
 D|---------------------|
 A|-------00------------|
 D|-444-22--2-0000-0000-|

 


 


 Outro


 16.


 

 
 G|-------------------------------------|
 D|-------------------------------------|
 A|-------------------------------------|--x3

 


 D|-44444444-44444444-00000000-00000000-|


 


 17.


 

 
 G|-------------------------------------|
 D|-------------------------------------|
 A|-------------------0~---2~-----------|
 D|-44444444-44444444----------0~-------|


Important: The song above is NOT stored on the Chordie server. The original song is hosted at www.guitartabs.cc. Chordie works as a search engine and provides on-the-fly formatting. Chordie does not index songs against artists'/composers' will. To remove this song please click here.

This song is displayed as text-only. Transposing and tuning is only available for chordpro-songs.
Rate #1 of 1 versions

Login - add to songbook

SHARE PAGE  



You need to log in to post comments