Guitar Tabs, Chords and Lyrics
Login is temporarily disabled for some users. Do not panic. Will be back in an hour or two. DO NOT REREGISTER!!


Run   Rufio

 
 G||----------------------------------------------------------------------|
 D||----------------------------------------------------------------------|
 A||-5-66-6~----65-----------------65--5-66-6~----65----------------------|
 Eb|--------------74-4-55-5~--5555---7--------------74-4-55-5~---5555-777-|

 


 


 Verse


 "Meet me at the back door..."


 2.


 

 
 G||-------------------------------------------------------------------------|
 D||-------------------88----------------------------------------------------|
 A||-66666666-66666666-------------------------------------------------------|--x2
 Eb|-------------------77777777-77777777-55555555-55555555-55555555-55555555-|

 


 


 Pre-Chorus


 "Shut the windows..."


 3.


 

 
 G||-----------------------------------|
 D||----5~------3~---------------------|
 A||-3~----3-1~----1----6~---6x--------|
 Eb|-----------------5~----5-----------|

 


 


 Chorus


 "We can run, we can run..."


 4.


 

 
 G||-------------------------------------------------------------------------|
 D||-------------------------------------------------------------------------|
 A||-------------------------------------33333333-11111111-------------------|
 Eb|-00000000-00000000-55555555-55555555-------------------55555555-55555555-|

 


 


 Outro


 5.


 

 
 G||-------------------|
 D||-------------------|
 A||-5-66-6~-----------|
 Eb|---------4-5-7-545-|

 


 


 Verse


 "I think I found a way out..."


 6.


 

 
 G||-------------------------------------------------------------------------|
 D||-----------------------------5555333-------------------------------------|
 A||-66666666-66666666-------------------------------------------------------|
 Eb|-------------------77777777-7--------55555555-55555555-55555555-55555555-|

 


 


 "Hiding from the cold nights..."


 7.


 

 
 G||-------------------------------------------------------------------------|
 D||-------------------------------------------------------------------------|
 A||-6x----------------------------------------------------------------------|
 Eb|-------------------6h76h7~\----------55555555-55555555-55555555-55555555-|

 


 


 Pre-Chorus


 "Shut the windows..."


 8.


 

 
 G||-----------------------------------|
 D||----5~------3~---------------------|
 A||-3~----3-1~----1----6~---6x--------|
 Eb|-----------------5~----5-----------|

 


 


 Chorus


 "We can run, we can run..."


 9.


 

 
 G||-------------------------------------------------------------------------|
 D||-------------------------------------------------------------------------|
 A||-------------------------------------33333333-11111111-------------------|
 Eb|-00000000-00000000-55555555-55555555-------------------55555555-55555555-|

 


 ( Tab from: http://www.guitartabs.cc/tabs/r/rufio/run_btab.html )


 Bridge


 "I got you right next to me..."


 10.


 

 
 G||-------------------------------------------------------------------------|
 D||-------------------------------------------------------------------------|
 A||-------------------------------------------------------------------------|
 Eb|-7-777757-77777999-5-555545-55555999-7-777757-77777999-5-555545-55555555-|

 


 


 "Golden and glisten alone..."


 11.


 

 
 G||-----------------------------------|
 D||-----------------------------------|
 A||-3-33-3331-11-111------------------|
 Eb|------------------5~---------------|

 


 


 Verse


 "Hiding from the cold..."


 12.


 

 
 G||---------------------------------------------------------------------------------------|
 D||---------------------------------------------------------------------------------------|
 A||---------------------3~----1~------------------------------3~----1~--------------------|
 Eb|-0~--------5~--------------------5~----0~--------5~--------------------5~------5555x---|

 


 


 Chorus


 "We can run, we can run..."


 13.


 

 
 G||-------------------------------------------------------------------------|
 D||-------------------------------------------------------------------------|
 A||-------------------------------------33333333-11111111-------------------|
 Eb|-00000000-00000000-55555555-55555555-------------------55555555-55555555-|

 


 


 "Just say yes and we'll sing about us..."


 14.


 

 
 G||-------------------------------------|
 D||-------------------------------------|
 A||-33333333-11111111-------------------|
 Eb|-------------------55555555-55555555-|

 


 


 Outro


 15.


 

 
 G||-------------------------------------|
 D||-------------------------------------|
 A||-5-66-6~--------------6~\------------|
 Eb|---------4-5-7-545-0~----------------|


Important: The song above is NOT stored on the Chordie server. The original song is hosted at www.guitartabs.cc. Chordie works as a search engine and provides on-the-fly formatting. Chordie does not index songs against artists'/composers' will. To remove this song please click here.

This song is displayed as text-only. Transposing and tuning is only available for chordpro-songs.
Rate #1 of 1 versions

Jango Player

Login - add to songbook

SHARE PAGE  




You need to log in to post comments