Guitar Tabs, Chords and Lyrics
Major upgrade!! After one year development the new version of Chordie is now online! Please give feedback.


Anthem  Rush

Intro, Repeat 4 times (expanded tab)
Overdriven guitar with slight slap back delay
[G]q [A]q [C]q [D]e q e s s s s s s
 
 |-----------------------------|-----------------------------|
 |-----------------------------|-----------------------------|
 7o----------------5-------7---|-----------------------------|
 8o5-------7-------5-------7---|------------------h-p--------|
 |-5-------7-------3-------5---|---------7-------5-7-5--p---p|
 |-3-------5-------------------|-0---------------------7-5-4-|

q e s s s s s s q e s s s s s
 
 |-----------------------------|-----------------------------|
 |-----------------------------|-----------------------------|
 |-----------------------------|----------------------------o|
 |------------------h-p--------|------------------h-p-------o|
 |---------7-------5-7-5--p---p|---------7-------5-7-5--p----|
 |-0---------------------7-5-4-|-0---------------------7-5\--|

(Tab normal width)
Repeat 3 times
[G]q [A]q [C]q [D]e [E]ww
 
 |---------------|-----------------|-----------------|
 |---------------|-----------------|-----------------|
 7o--------5---7o4-9---------------|--------pick--/x\|
 8o5---7---5---7o4-9---------------|--------slide-/x\|
 |-5---7---3---5-|-7---------------|--------------/x\|
 |-3---5---------|-----------------|-----------------|

[1]1 2 [2]3 4 [3]5 6 [4]7 8 [1]1 2 [2]3 4 [3]5 6 [4]7 8 [1]1 2 [2]3 4 [3]5 6 [4]7 8 [1]1 2 [2]3 4 [3]5 6 [4]7 8
[E]E E E E E sss E E E E E sss E E E E E sss [G]E [A]E ss[C]e [D]E ss
 
 |-----------------|-----------------|-----------------|-----------------|
 |-----------------|-----------------|-----------------|-----------------|
 |-9-9\------------|-9-9\------------|-9-9\------------|---------5-7-----|
 |-9-9\------------|-9-9\------------|-9-9\------------|-5-7---xx5-7--xx-|
 |-7-7\------------|-7-7\------------|-7-7\------------|-5-7---xx3-5--xx-|
 |-------0-0-0-000-|-------0-0-0-000-|-------0-0-0-000-|-3-5---xx-----xx-|

[E] [G] [A] [C] [D] 
[E] [E] [E] [E] [E] [E] [E] [E] [E] [E] [E] [E] [E] [E] [E] [E] [E] [E] [E]  
 
 |-----------------|-----------------|-----------------|-----------------|
 |-----------------|-----------------|-----------------|-----------------|
 |-9-9\------------|-9-9\------------|-9-9\------------|---------5-7-----|
 |-9-9\------------|-9-9\------------|-9-9\------------|-5-7-----5-7-----|
 |-7-7\------------|-7-7\------------|-7-7\------------|-5-7-----3-5-----|
 |-------0-0-0-----|-------0-0-0-----|-------0-0-0-----|-3-5-------------|

[E]E E E E E E E E E E E E [G]E [A]E ss[C]e [D]E
 
 |-----------------|-----------------|-----------------|-----------------|
 |-9-9\------------|-9-9\------------|-9-9\------------|-----------------|
 |-9-9\------------|-9-9\------------|-9-9\------------|-------xx5-7-----|
 |-9-9\------------|-9-9\------------|-9-9\------------|-5-7---xx5-7-----|
 |-7-7\------------|-7-7\------------|-7-7\------------|-5-7---xx3-5-----|
 |---------0-0-----|---------0-0-----|---------0-0-----|-3-5-------------|

With phaser and slightly overdriven.
[E]He E [C]q q he [Dsus4]E Q E Q [E]h E E E
 
 |-----------------|-----------------|-----------------|-----------------|
 |-----------------|-------1---------|---------3-------|-----------------|
 |---------------0-|-----------------|-----------0-----|-----------------|
 |-----------------|-----2-----------|---4-------------|-2-------2--0--2-|
 |-2---------------|-3---------------|-5---------------|-----------------|
 |-0---------------|-----------------|-----------------|-----------------|

[E]Q he [C]Q e h [Dsus4]e Q e Q [E]w Q q q
 
 |-------0---------|-------3---------|-5-------2-------|-----------------|
 |-----------------|-1-------1-------|---2-------3-----|-----------------|
 |-1---------------|-----------------|-----------------|-----------------|
 |-----------------|-----------------|-----------------|---2-----2--0----|
 |-----------------|-----------------|-----------------|-----------------|
 |-----------------|-----------------|-----------------|-0---------------|

[G]he E E E [A]q E E E E [C]E qs [Dsus4]E se E [E]w E Q
 
 |-3------------p--|--------------p--|-----------------|-----------------|
 |-3---------3-3-0-|-2---3-2-----2-0-|-----------------|-----------------|
 |-0---------------|-----------------|-----------------|-----------------|
 |-0---------------|-----------------|----2-\-----4----|---------2-0-----|
 |-2---------------|-----------------|-3----\--5----h--|-----------------|
 |-3---------------|-----------------|-------------3-4-|-0---------------|

With delay
[G]he E E E [A]q E Q E E [C]E E E E [Ds4]E E [C]E E E [D]E [Ds4]E
 
 |-3------------p--|--------------p--|-----3-3-3-3-----|-3-3-3/--5-3-----|
 |-3---------3-3-0-|-2---3-2-----2-0-|-----1-1-3-3-----|-1-1-1/--3-3-----|
 |-0---------------|-----------------|---0-0-0-2-2-----|-0-0-0---0-2-----|
 |-0---------------|-----------------|---2-------------|-----------------|
 |-2---------------|-----------------|-3---------------|-----------------|
 |-3---------------|-----------------|-----------------|-----------------|

[C] [Ds4] [E]  
[E] [E] [E] [E] [E] [E] [E] [E] [E] [E] [E] [E] [E] [E] [E]  
 
 |-3-3-3---3-3-----|-----------------|-----------------|-----------------|
 |-1-1-1---3-3-----|-----------------|-----------------|-----------------|
 |-0-0-0---2-2-----|-9-9\------------|-9-9\------------|-9-9-------------|
 |-----------------|-9-9\------------|-9-9\------------|-9-9-------------|
 |-----------------|-7-7\------------|-7-7\------------|-7-7-------------|
 |-----------------|---------0-0-----|---------0-0-----|---------0-0-----|

[G] [A] [C] [D] [E]  
[E] [E] [E] [E] [E] [E] [E] [E] [E] [E] [E] [E] [E] [E] [E] [E]  
 
 |-----------------|-----------------|-----------------|-----------------|
 |-----------------|-9-9\------------|-9-9\------------|-9-9-------------|
 |---------5-7-----|-9-9\------------|-9-9\------------|-9-9-------------|
 |-5-7-----5-7-----|-9-9\------------|-9-9\------------|-9-9-------------|
 |-5-7-----3-5-----|-7-7\------------|-7-7\------------|-7-7-------------|
 |-3-5-------------|---------0-0-----|---------0-0-----|---------0-0-----|
 Delay repeats on 1/8 notes - - - - - - - - - - - - -

[G]E [A]E ss[C]e [D]E ss [E]E E E E E E
 
 |-----------------|-----------------|-----------------|-----------------|
 |-----------------|-9-9-------------|-9-9-------------|-9-9-------------|
 |-------xx5-7-----|-9-9-------------|-9-9-------------|-9-9-------------|
 |-5-7---xx5-7---xx|-9-9-------------|-9-9-------------|-9-9-------------|
 |-5-7---xx3-5---xx|-7-7-------------|-7-7-------------|-7-7-------------|
 |-3-5-----------xx|-----------------|-----------------|-----------------|

[G]h [D]h [E]He E [C]q E E h [D]E Q E Q
 
 |-3---------------|-----------------|-----------------|-----------------|
 |-3-------7\------|-----------------|-------1---------|-3-------3-------|
 |-4-------7\------|---------------0-|---------0-------|---2-------0-----|
 |-5-------7\------|-----------------|-----2-----------|-----------------|
 |-5-------5\------|-----------------|-3---------------|-----------------|
 |-3---------------|-0---------------|-----------------|-----------------|

[E]Qs se e q q e he [C]Q he e Q e Q
 
 |-----------------|-------0---------|-------3---------|-5-------2-------|
 |-----------------|-----0-----------|-1---------------|---3-------3-----|
 |---------h-------|-1---------------|-----------------|-----------------|
 |-2------02-0-2---|-----------------|-----------------|-----------------|
 |-----------------|-----------------|-----------------|-----------------|
 |-----------------|-----------------|-----------------|-----------------|

[E]h E Q [G]he E E E [A]q E Q E E [C]E qs [D]E se E
 
 |-----------------|-3---------------|--------------p--|-----------------|
 |-----------------|-3---------3-3-0-|-2---3-2-----2-0-|-----------------|
 |-----------------|-0---------------|-----------------|-----------------|
 |---------2-0-----|-0---------------|-----------------|----2-\-----4----|
 |-----------------|-2---------------|-----------------|-3----\--5----h--|
 |-0---------------|-3---------------|-----------------|-------------3-4-|

[E]h E Q [G]he E E E [A]q E Q E E [C]E E E E [Ds4]E E
 
 |-----------------|-3------------p--|--------------p--|-----3-3-3-3-----|
 |-----------------|-3---------3-3-0-|-2---3-2-----2-0-|-----1-1-3-3-----|
 |-----------------|-0---------------|-----------------|---0-0-0-2-2-----|
 |---------2-0-----|-0---------------|-----------------|---2-------------|
 |-----------------|-2---------------|-----------------|-3---------------|
 |-0---------------|-3---------------|-----------------|-----------------|

[C]E E E [DsDs4]E E [C]E E E [Ds4]E E [E]w+
 
 |-3-3-3/--5-3-----|-3-3-3---3-3-----|-----------------|-----------------|
 |-1-1-1/--3-3-----|-1-1-1---3-3-----|-----------------|-----------------|
 |-0-0-0---0-2-----|-0-0-0---2-2-----|-----------------|-----------------|
 |-----------------|-----------------|-----------------|-----------------|
 |-----------------|-----------------|-----------------|-----------------|
 |-----------------|-----------------|-0---------------|-----------------|

( Tab from: http://www.guitartabs.cc/tabs/r/rush/anthem_tab_ver_5.html )
Solo w/wha wha
& slap back echo
 
 S S S - - -- ---
 |-----------------|-----------------|-----------------|-----------------|
 |-----------------|-----------------|-----------------|-------increase--|
 |-----------------|-----------------|-----------------|-7-7-7-picking---|
 |-----------------|-----------------|-----------------|-------speed-----|
 |-----------------|-----------------|-----------------|-----------------|
 |-----------------|-----------------|-----------------|-----------------|

[1]1 2 [2]3 4 [3]5 6 [4]7 8 [1]1 2 [2]3 4 [3]5 6 [4]7 8 [1]1 2 [2]3 4 [3]5 6 [4]7 8 [1]1 2 [2]3 4 [3]5 6 [4]7 8
 
 |-continue tremolo-picking with-----|-----------------|-----------------|
 |-exagerated vibrato-(from hand)----|--1--------------|-----------------|
 |-7-7-7-7-7-7-7-7-|-7-7-7-7-7-7-7---|-7^--------------|-----------------|
 |-----------------|-----------------|---start bend &--|-5~--------------|
 |-----------------|-----------------|---release-------|-----------------|
 |-----------------|-----------------|-----------------|-----------------|

(Note: this is a work in progress)
***Tab expanded to twice normal width for clarity***
 
 |------------------------------------------------------h----p-----|
 |-----------------------------------------------(1)-12---15--12---|
 |-(0)------------------------------------------14^----------------|
 |-----------------------------------------------------------------|
 |-----------------------------------------------------------------|
 |-----------------------------------------------------------------|
 |---------h----p-------------h----p------------h----p-------------|
 |--(1)-12---15--12----(1)-12---15--12----(1)12---15--12----(1)-12-|
 |-14^----------------14^----------------14^---------------14^-----|
 |-----------------------------------------------------------------|
 |-----------------------------------------------------------------|
 |-----------------------------------------------------------------|

(1.5) (1.5) r
 
 |h---p----14^~--------------------14^~~---------------------------|
 |-15---12---------------------------------------------------------|
 |-----------------------------------------------------------------|
 |-----------------------------------------------------------------|
 |-----------------------------------------------------------------|
 |-----------------------------------------------------------------|
 |-12-----------(1)---r------------(1.5)-----------(1.5)-----------|
 |-----15--12--15^-----15--12------17^-------------17^-------------|
 |-----------------------------------------------------------------|
 |-----------------------------------------------------------------|
 |-----------------------------------------------------------------|
 |-----------------------------------------------------------------|
 |-(1.5)--------------------------------------------(1)---r--p-----|
 |-17^-----------------------------17--15------15--17^---------15--|
 |-----------------------------------------16----------------------|
 |-----------------------------------------------------------------|
 |-----------------------------------------------------------------|
 |-----------------------------------------------------------------|
 |--------------(1)---r--p----------------------(1)----r---p-------|
 |-----15------17^---------15------15----------17^---------15------|
 |-16--------------------------16------------------------------16--|
 |-----------------------------------------------------------------|
 |-----------------------------------------------------------------|
 |-----------------------------------------------------------------|

[1]1 2 [2]3 4 [3]5 6 [4]7 8 [-]- [1/4]1/8
[1] [2] [3] [4] [1] [2] [3] [4] [1] [2] [3] [4] [1] [2] [3] [4] [-] [1/16]  
 
 e|-----------------------------------------------------------------|
 B|-15\-----------------------------12--14--------------------------|
 G|----------------------12---14------------------------------------|
 D|----------------/14----------------------------------------------|
 A|-----------------------------------------------------------------|
 E|-----------------------------------------------------------------|

To be finished later...
Sorry... tabbing solos is a pain in the rear end!
Repeat 3 times (1) (1)
 
 |--------h---p------p-------------15^---------15^~~---------------|
 |--(1)-12--15-12--15-12---12--12----------------------------------|
 |o14^------------------------------------------------------------o|
 |o---------------------------------------------------------------o|
 |-----------------------------------------------------------------|
 |-----------------------------------------------------------------|

(Resume normal tab width)
[E] [G] [A] [C] [D] 
[E] [E] [E] [E] [E] [E] [E] [E] [E] [E] [E] [E] [E] [E] [E] [E]  
 
 |-----------------|-----------------|-----------------|-----------------|
 |-----------------|-----------------|-----------------|-----------------|
 |-9-9\------------|-9-9\------------|-9-9\------------|---------5-7-----|
 |-9-9\------------|-9-9\------------|-9-9\------------|-5-7-----5-7-----|
 |-7-7\------------|-7-7\------------|-7-7\------------|-5-7-----3-5-----|
 |---------0-0-----|---------0-0-----|---------0-0-----|-3-5-------------|

[E] [G] [A] [C] [D] 
[E] [E] [E] [E] [E] [E] [E] [E] [E] [E] [E] [E] [E] [E] [E] [E]  
 
 |-----------------|-----------------|-----------------|-----------------|
 |-----------------|-----------------|-----------------|-----------------|
 |-9-9\------------|-9-9\------------|-9-9\------------|---------5-7-----|
 |-9-9\------------|-9-9\------------|-9-9\------------|-5-7-----5-7-----|
 |-7-7\------------|-7-7\------------|-7-7\------------|-5-7-----3-5-----|
 |---------0-0-----|---------0-0-----|---------0-0-----|-3-5-------------|

With phaser and slightly overdriven.
[E]He E [C]q q he [DaddG]E Q E q E [E]h E E E
 
 |-----------------|-----------------|-----------------|-----------------|
 |-----------------|-------1---------|---------3-------|-----------------|
 |---------------0-|-----------------|-----------0-----|-----------------|
 |-----------------|-----2-----------|---4-------------|-2-------2--0--2-|
 |-2---------------|-3---------------|-5---------------|-----------------|
 |-0---------------|-----------------|---------------0-|-----------------|

[E]q e he [C]Q he [D]e Q e Q [E]h E qs
 
 |-------0---------|-------3---------|-5-------2-------|-----------------|
 |-----0-----------|-1---------------|---2-------3-----|-----------------|
 |-1---------------|-----------------|-----------------|-----------------|
 |-----------------|-----------------|-----------------|---------2--0----|
 |-----------------|-----------------|-----------------|-----------------|
 |-----------------|-----------------|-----------------|-0---------------|

[G]he E E E [A]q E Q E E [C]E Q [D]E se E [E]h E qs
 
 |-3------------p--|--------------p--|-----------------|-----------------|
 |-3---------3-3-0-|-2---3-2-----2-0-|-----------------|-----------------|
 |-0---------------|-----------------|-----------------|-----------------|
 |-0---------------|-----------------|----2-\-----4----|---------2--0----|
 |-2---------------|-----------------|-3----\--5----h--|-----------------|
 |-3---------------|-----------------|-------------3-4-|-0---------------|

With delay
[G]he E E E [A]q E Q E E [C]E E E E [Ds4]E E [C]E E E [DsDs4]E E
 
 |-3------------p--|--------------p--|-----3-3-3-3-----|-3-3-3/--5-3-----|
 |-3---------3-3-0-|-2---3-2-----2-0-|-----1-1-3-3-----|-1-1-1/--3-3-----|
 |-0---------------|-----------------|---0-0-0-2-2-----|-0-0-0---0-2-----|
 |-0---------------|-----------------|---2-------------|-----------------|
 |-2---------------|-----------------|-3---------------|-----------------|
 |-3---------------|-----------------|-----------------|-----------------|

[C] [Ds4] [E]  
[E] [E] [E] [E] [E] [E] [E] [E] [E] [E] [E]  
 
 |-3-3-3---3-3-----|-----------------|-----------------|-----------------|
 |-1-1-1---3-3-----|-9-9-------------|-9-9-------------|-9-9-------------|
 |-0-0-0---2-2-----|-9-9-------------|-9-9-------------|-9-9-------------|
 |-----------------|-9-9-------------|-9-9-------------|-9-9-------------|
 |-----------------|-7-7-------------|-7-7-------------|-7-7-------------|
 |-----------------|-----------------|-----------------|-----------------|
 Echo repeats on 1/8 notes - - - - - - - - - - - - -

[G]h [D]h [E]E E E E E E
 
 |-3---------------|-----------------|-----------------|-----------------|
 |-3-------7-------|-9-9-------------|-9-9-------------|-9-9-------------|
 |-4-------7-------|-9-9-------------|-9-9-------------|-9-9-------------|
 |-5-------7-------|-9-9-------------|-9-9-------------|-9-9-------------|
 |-5-------5-------|-7-7-------------|-7-7-------------|-7-7-------------|
 |-3---------------|-----------------|-----------------|-----------------|
 Echo repeats on 1/8 notes - - - - - - - - - - - - -

[G]h [D]h [E]E E E E E E
 
 |-3---------------|-----------------|-----------------|-----------------|
 |-3-------7-------|-9-9-------------|-9-9-------------|-9-9-------------|
 |-4-------7-------|-9-9-------------|-9-9-------------|-9-9-------------|
 |-5-------7-------|-9-9-------------|-9-9-------------|-9-9-------------|
 |-5-------5-------|-7-7-------------|-7-7-------------|-7-7-------------|
 |-3---------------|-----------------|-----------------|-----------------|
 Echo repeats on 1/8 notes - - - - - - - - - - - - -

[G]h [D]h [E]E E E E E E
 
 |-3-------2-------|-----------------|-----------------|-----------------|
 |-3-------3-------|-9-9-------------|-9-9-------------|-9-9-------------|
 |-4-------2-------|-9-9-------------|-9-9-------------|-9-9-------------|
 |-5-------4-------|-9-9-------------|-9-9-------------|-9-9-------------|
 |-5-------5-------|-7-7-------------|-7-7-------------|-7-7-------------|
 |-3---------------|-----------------|-----------------|-----------------|

[G] [D] [E]  
[E] [E] [E] [E] [E] [E] [ssss]  
 
 |-3-3-3-----------|-----------------|
 |-3-3-3---7-7-7---|-9999\-----------|
 |-4-4-4---7-7-7---|-9999\-----------|
 |-5-5-5---7-7-7---|-9999\-----------|
 |-5-5-5---5-5-5---|-7777\-----------|
 |-3-3-3-----------|-----------------|


Important: The song above is NOT stored on the Chordie server. The original song is hosted at www.guitartabs.cc. Chordie works as a search engine and provides on-the-fly formatting. Chordie does not index songs against artists'/composers' will. To remove this song please click here.

Text color:
Chord color:
Chord grids: 
Font size:    
Page size: 

A C D DaddG Dsus4 E G
Rate #1 of 10 versions

Jango Player

Login - add to songbook

SHARE PAGE  



You need to log in to post comments