Guitar Tabs, Chords and Lyrics
Server problems seems to be fixed. Chordie has been experiencing problems with songs disappearing. These issues now seems to be fixed, but still verifying the fix. If you find anything strange, please email admin@chordie.com.


All the Time  Rx Bandits

*********************************
* Song : All the Time *
* Artist : Rx Bandits *
* Album : Progress *
* Year : 2001 *
*********************************
Tabbed by: Bill Streckfus
Tempo = 192 bpm
Intro / Verse:
 
 ------------------------------------------------------------------------------

Guitar 1:
[Asus2] [G6]  
 
 E|---0--------------|------------------|---0--------------|------------------|
 B|-----0------------|------------------|-----3------------|------------------|
 G|-------5----------|------------------|-------4----------|------------------|
 D|-7----------------|------------------|-5----------------|------------------|
 A|------------------|------------------|------------------|------------------|
 E|------------------|------------------|------------------|------------------|

[Asus2] [Am] [G6] [G]  
 
 E|---0--------------|-7p0---8p0--------|-0-----3----------|------------------|
 B|-----0------------|------------------|---3--------------|------------------|
 G|-------5----------|-----5-----5------|-----4------------|------------------|
 D|-7----------------|-------------7/5--|------------------|------------------|
 A|------------------|------------------|------------------|------------------|
 E|------------------|------------------|------------------|------------------|

[Asus2] [G6]  
 
 E|---0--------------|------------------|---0--------------|------------------|
 B|-----0------------|------------------|-----3------------|------------------|
 G|-------5----------|------------------|-------4----------|------------------|
 D|-7----------------|------------------|-5----------------|------------------|
 A|------------------|------------------|------------------|------------------|
 E|------------------|------------------|------------------|------------------|

[Asus2] [G]  
 
 E|---0--------------|------------------|-3----------------|------------------|
 B|-----0------------|------------------|-3----------------|------------------|
 G|-------5----------|------------------|-4----------------|------------------|
 D|-7----------------|------------------|-5----------------|------------------|
 A|------------------|------------------|------------------|------------------|
 E|------------------|------------------|------------------|------------------|

[Asus2] [G6]  
 
 E|---0--------------|------------------|---0--------------|------------------|
 B|-----0------------|------------------|-----3------------|------------------|
 G|-------5----------|------------------|-------4----------|------------------|
 D|-7----------------|------------------|-5----------------|------------------|
 A|------------------|------------------|------------------|------------------|
 E|------------------|------------------|------------------|------------------|

[Asus2] [Am] [G6] [G]  
 
 E|---0--------------|-7p0---8p0--------|-0-----3----------|--------------xxx-|
 B|-----0------------|------------------|---3--------------|--------------xxx-|
 G|-------5----------|-----5-----5------|-----4------------|--------------xxx-|
 D|-7----------------|-------------7/5--|------------------|--------------xxx-|
 A|------------------|------------------|------------------|--------------xxx-|
 E|------------------|------------------|------------------|--------------xxx-|

[Am] [G]  
 
 E|-----5-------5----|-----5-------5----|-----3-------3----|-----3-------3----|
 B|-----5-------5----|-----5-------5----|-----3-------3----|-----3-------3----|
 G|-----5-------5----|-----5-------5----|-----4-------4----|-----4-------4----|
 D|------------------|------------------|------------------|------------------|
 A|------------------|------------------|------------------|------------------|
 E|------------------|------------------|------------------|------------------|

[Am]  
 
 E|-----5-------5----|-----5-------5----|
 B|-----5-------5----|-----5-------5----|
 G|-----5-------5----|-----5-------5----|
 D|------------------|------------------|
 A|------------------|------------------|
 E|------------------|------------------|

Guitars 1 & 2 (distorted):
[G5]  
 
 E|------------------|------------------|
 B|------------------|------------------|
 G|------------------|------------------|
 D|-----5------------|------------------|
 A|-----5------------|------------------|
 E|-----3------------|------------------|

Pre-Chorus
 
 ------------------------------------------------------------------------------

Guitars 1 & 2:
[A5] [G5] [C5] [D5] [A5] [G5] [C5] [CM7/B]  
 
 E|------------------|------------------|------------------|------------------|
 B|------------------|------------------|------------------|------------------|
 G|---------------5--|-5---x-7-7---x----|------------------|-----5-------5----|
 D|-7---x-5-5---x-5--|-5---x-7-7---x-7--|-7---x-5-5---5-x--|-----5-------5----| x 3
 A|-7---x-5-5---x-3--|-3---x-5-5---x-7--|-7---x-5-5---5-x--|-3-3-3---2-2-2----|
 E|-5---x-3-3---x----|---------------5--|-5---x-3-3---3-x--|------------------|

p.m. p.m.
[A5] [G5] [C5] [D5] [A5] [G5] [C5]  
 
 E|------------------|------------------|------------------|------------------|
 B|------------------|------------------|------------------|------------------|
 G|---------------5--|-5---x-7-7---x----|------------------|-----5-5-----5-5--|
 D|-7---x-5-5---x-5--|-5---x-7-7---x-7--|-7---x-5-5---5-x--|-----5-5-----5-5--|
 A|-7---x-5-5---x-3--|-3---x-5-5---x-7--|-7---x-5-5---5-x--|-3-3-3-3-3-3-3-3--|
 E|-5---x-3-3---x----|---------------5--|-5---x-3-3---3-x--|------------------|

CM7/B p.m. p.m.
 
 E|------------------|
 B|------------------|
 G|-----5-5-----5-5--|
 D|-----5-5-----5-5--|
 A|-2-2-2-2-2-2-2-2--|
 E|------------------|

p.m. p.m.
Verse 2
 
 ------------------------------------------------------------------------------

[Am7]  
 
 E|------------------|------------------|
 B|------------------|------------------|
 G|------------------|------------------|
 D|-----2-2-----5-5--|------------------| x 7
 A|-0-0-----3-3------|------------------|
 E|------------------|------------------|

p.m.p.m.p.m.
[Am7]  
 
 E|------------------|------------------|
 B|------------------|------------------|
 G|------------------|------------------|
 D|-----2-2-------5--|---5---5----------|
 A|-0-0-----3-3-x----|------------------|
 E|------------------|------------------|

[Am]  
 
 E|-5---x-5-x-5-x-5--|
 B|-5---x-5-x-5-x-5--|
 G|-5---x-5-x-5-x-5--|
 D|------------------|
 A|------------------|
 E|------------------|

[Am]  
 
 E|-x-5-x-5-x-5-x-5--|
 B|-x-5-x-5-x-5-x-5--|
 G|-x-5-x-5-x-5-x-5--| x 6
 D|------------------|
 A|------------------|
 E|------------------|

[Am]  
 
 E|-x-5---5-x-5-5-5--|
 B|-x-5---5-x-5-5-5--|
 G|-x-5---5-x-5-5-5--|
 D|------------------|
 A|------------------|
 E|------------------|

Next, is the Pre-chorus again, followed by the chorus.
Chorus
 
 ------------------------------------------------------------------------------

Guitar 1 (distorted):
[Am7] [C5] [CM7/B]  
 
 E|------------------|------------------|------------------|------------------|
 B|------------------|------------------|------------------|------------------|
 G|------------------|------------------|-5---5-5-5-5-5-5--|-5---5-5-5-5-5-5--|
 D|-7---7-7-7-7-7-7--|-7---7-7-7-7-7-7--|-5---5-5-5-5-5-5--|-5---5-5-5-5-5-5--| x 3
 A|-7---7-7-7-7-7-7--|-7---7-7-7-7-7-7--|-3---3-3-3-3-3-3--|-2---2-2-2-2-2-2--|
 E|-5---5-5-5-5-5-5--|-5---5-5-5-5-5-5--|------------------|------------------|

[A5]  
 
 E|------------------|------------------|
 B|------------------|------------------|
 G|------------------|------------------|
 D|-7----------------|------------------|
 A|-7----------------|------------------|
 E|-5----------------|------------------|

Let ring and slight whammy near the end.
Guitar 2 (distorted):
[Am7] [C5] [CM7/B]  
 
 E|------------------|------------------|------------------|------------------|
 B|------------------|------------------|------------------|------------------|
 G|------------------|------------------|-5---5-5-5-5-5-5--|-5---5-5-5-5-5-5--|
 D|-----2-2-----5-5--|-----2-2-----5-5--|-5---5-5-5-5-5-5--|-5---5-5-5-5-5-5--| x 3
 A|-0-0-----3-3------|-0-0-----3-3------|-3---3-3-3-3-3-3--|-2---2-2-2-2-2-2--|
 E|------------------|------------------|------------------|------------------|

[A5]  
 
 E|------------------|------------------|
 B|------------------|------------------|
 G|------------------|------------------|
 D|-7----------------|------------------|
 A|-7----------------|------------------|
 E|-5----------------|------------------|

Guitar 3 (distorted):
[Am7]  
 
 E|------------------|------------------|------------------|------------------|
 B|------------------|------------------|------------------|------------------|
 G|------------------|------------------|------------------|------------------|
 D|-----2-2-----5-5--|-----2-2-----5-5--|------------------|------------------|
 A|-0-0-----3-3------|-0-0-----3-3------|------------------|------------------|
 E|------------------|------------------|------------------|------------------|

[Am7]  
 
 E|------------------|------------------|------------------|------------------|
 B|------------------|------------------|------------------|------------------|
 G|-----9-9----1212--|-----9-9----1212--|------------------|------------------|
 D|-7-7----1010------|-7-7----1010------|------------------|------------------|
 A|------------------|------------------|------------------|------------------|
 E|------------------|------------------|------------------|------------------|

[Am7]  
 
 E|------------------|------------------|------------------|------------------|
 B|------------------|------------------|------------------|------------------|
 G|-----9-9----1212--|-----9-9----1212--|------------------|------------------|
 D|-7-7----1010------|-7-7----1010------|------------------|------------------|
 A|------------------|------------------|------------------|------------------|
 E|------------------|------------------|------------------|------------------|

Bridge:
 
 ------------------------------------------------------------------------------

Guitar 1:
[Asus2] [Am] [add9] [G]  
 
 E|---0---7-----8----|---7p0-8p0--------|-7-------5---3----|-----3---5--10----|
 B|-----0---0-----0--|-----------0------|---0---0---0---0--|---0---0---0---0--|
 G|----------5-------|-5-----------5----|-----0------------|-0----------------|
 D|-7----------------|---------------7--|------------------|------------------|
 A|------------------|------------------|------------------|------------------|
 E|------------------|------------------|------------------|------------------|

[Asus2] [Am] [add9] [G]  
 
 E|---0---7-----8----|---7p0-8p0--------|-7------10--------|-7------10--10----|
 B|-----0---0-----0--|-----------0------|---0---0---0---0--|---0---0---0---0--|
 G|----------5-------|-5-----------5----|-----0-------0----|-----0------------|
 D|-7----------------|---------------7--|------------------|------------------|
 A|------------------|------------------|------------------|------------------|
 E|------------------|------------------|------------------|------------------|

[Asus2] [Am] [add9] [G]  
 
 E|---0---7-----8----|---7p0-8p0--------|-7-------5---3----|-----3---5--10----|
 B|-----0---0-----0--|-----------0------|---0---0---0---0--|---0---0---0---0--|
 G|----------5-------|-5-----------5----|-----0------------|-0----------------|
 D|-7----------------|---------------7--|------------------|------------------|
 A|------------------|------------------|------------------|------------------|
 E|------------------|------------------|------------------|------------------|

Guitars 1 & 2 (distorted):
[A5] [E5]  
 
 E|------------------|------------------|------------------|------------------|
 B|------------------|------------------|------------------|------------------|
 G|------------------|------------------|------------------|---------------|
 D|-7-7-7-7-7-7-7-7--|-7-7-7-7-7-7-7-7--|-2-------2--------|---------------|
 A|-7-7-7-7-7-7-7-7--|-7-7-7-7-7-7-7-7--|-2-------2--------|------------------|
 E|-5-5-5-5-5-5-5-5--|-5-5-5-5-5-5-5-5--|-0-------0--------|------------------|

p.m.p.m.p.m.p.m.p.m.p.m.p.m.p.m.p.m. Pinch harmonic
Crescendo and gradually release palm mute.
Outro:
 
 ------------------------------------------------------------------------------

Guitars 1 & 2:
[A5] [G5] [C5] [D5]  
 
 E|------------------|------------------|
 B|------------------|------------------|
 G|------------------|-5-5-5-5-7-7-7-7--|
 D|-7-7-7-7-5-5-5-5--|-5-5-5-5-7-7-7-7--| x 4
 A|-7-7-7-7-5-5-5-5--|-3-3-3-3-5-5-5-5--|
 E|-5-5-5-5-3-3-3-3--|------------------|

[Am7]  
 
 E|------------------|
 B|------------------|
 G|------------------|
 D|-----2-2-----5-5--|
 A|-0-0-----3-3------|
 E|------------------|

p.m.p.m.p.m.
Segway:
 
 ------------------------------------------------------------------------------

Guitar 1:
[Am] [add11]  
 
 E|------12----------|------------------|------12----------|------------------|
 B|15----------13----|15h1713------15---|15----------13--13|15h1713------15---|
 G|------------------|---------14-------|--14--------------|---------14-------|
 D|------------------|------------------|------------------|------------------|
 A|------------------|------------------|------------------|------------------|
 E|------------------|------------------|------------------|------------------|

[C] [add11] [Am] [add11] [C] [add11] [Am] [add11]  
 
 E|13--1312----------|------------------|13--1312----------|------------------|
 B|------------13----|15h1713------15---|------------13--13|15h1713------15---|
 G|--14--------------|---------14-----12|--14--------------|---------14-----12|
 D|------------------|------------------|------------------|------------------|
 A|------------------|------------------|------------------|------------------|
 E|------------------|------------------|------------------|------------------|

[Am] [m6] [Dm]  
 
 E|------------------|------------------|------------------|------------------|
 B|------------------|------------------|------------------|------------------|
 G|------14----10----|------------------|------------------|-----14-------14--|
 D|12----------------|------14----------|12---1512--x121512|12h15--15--x15--15|
 A|----------------12|12----------------|------------------|------------------|
 E|------------------|------------------|------------------|------------------|

[Dm]  
 
 E|------------------|------------------|
 B|------------------|------------------|
 G|--------------14--|-----14-------14--|
 D|------------15--15|12h15--15--x15----|
 A|------------------|------------------|
 E|------------------|------------------|
 -----------------------------------------------------------------------------

If this tab was helpful and you're as big of a bandits fan as I am, be on the
lookout for more Rx Bandits tabs by yours truly.

Important: The song above is NOT stored on the Chordie server. The original song is hosted at www.guitartabs.cc. Chordie works as a search engine and provides on-the-fly formatting. Chordie does not index songs against artists'/composers' will. To remove this song please click here.

Text color:
Chord color:
Chord grids: 
Font size:    
Page size: 

A5 Am Am7 Asus2 C C5 Cm7/B D5 Dm E5 G G5 G6
Rate #1 of 2 versions

Jango Player

Login - add to songbook

SHARE PAGE  



You need to log in to post comments