Guitar Tabs, Chords and Lyrics
Server problems seems to be fixed. Chordie has been experiencing problems with songs disappearing. These issues now seems to be fixed, but still verifying the fix. If you find anything strange, please email admin@chordie.com.


Dirty Rain  Ryan Adams

This is my first tab. I looked at the live videos to take the chords. Enjoy this great song.
Intro: (Strumming)
 
 E|-----------------------------|
 B|-----------------------------|
 G|--------1----------2---------|
 D|--------2----------2---------|
 A|--------2--------2/4(h)------|
 E|-----0-----------------------| x4

Chords used:
[E] [A/C#] [B/D#] [C#m] [G#m7] [A] [B]  
 
 |--0--| |----X--| |----X--| |--4--| |--4--| |--5--| |--7--|
 |--0--| |----5--| |----7--| |--5--| |--4--| |--5--| |--7--|
 |--1--| |----2--| |----4--| |--6--| |--4--| |--6--| |--8--|
 |--2--| |----2--| |----4--| |--6--| |--4--| |--7--| |--9--|
 |--2--| |--2/4--| |--4/6--| |--4--| |--6--| |--7--| |--9--|
 |--0--| |----X--| |----X--| |-----| |--4--| |--5--| |--7--|

|-[F#m7]-2--|
|--2--|
|--2--|
|--2--|
|--4--|
|--2--|
Last time[E] I was here it was raining
It ain't ra[A/C#]ining anymore[E]
The streets were drowning
Waters waning
All the r[A/C#]uins washed asho[B/D#]re
Now I'm[C#m] just looking through the ru[G#m7]bble
Trying to find[A] out who we were[E]
Last time I[E] was here it was raining
It ain't [A/C#]raining anymore[E] [A/C#] [E]
Last time[E] I was here you were waiting
You're not wa[A/C#]iting anymore[E]
The window's broke and the smoke's escaping
All the book[A/C#]s scattered across the floo[B/D#]r
And the churchb[C#m]ells are ringing through the sir[G#m7]ens
And your coa[A]t was full of bullet hole[E]s
Last time I was here you were waiting
You're ain't wai[A/C#]ting anymore[E]
Transition:
[A]  
 
 |------5--|
 |------5--|
 |------6--|
 |------7--|
 |------7--|
 |--2-4-5--|

So[A] may the wind blow
slide to B
May the moonlight know your name
A slide to B
So let the needle move the record round til the walls cave in
And you and[B] I were [A]out there danc[G#m7]ing in [F#m7]the dirty r[E]ain
2nd verse and chorus : Same
Last time I was here it was raining
Like you ain't never ever seen it rain
And your eyes were filled with terror
And the smoke from the gasoline
As the stars exploded with gunfire
I saw you smiling just before
Last time I was here you were crying
You're not crying anymore
So may the wind blow
May the moonlight know your name
So let the needle move the record round til the walls cave in
You and I out there dancing in the dirty rain
For the rest of the
song he uses: 2 last chords
 
 |-0---------------0---| |---------------0----|
 |-0---3---2/3/2---0---| |---3---2-------0----|
 |-1---2---2-------1---| |---2---2-------1----|
 |-2---0---2-------2---| |---0---2-------2----|
 |-2---0---4-------2---| |---0---4-------2----|
 |-0---------------0---| |----------3b---0----|

Dirty rain
In the dirty rain

Important: The song above is NOT stored on the Chordie server. The original song is hosted at www.guitartabs.cc. Chordie works as a search engine and provides on-the-fly formatting. Chordie does not index songs against artists'/composers' will. To remove this song please click here.

Text color:
Chord color:
Chord grids: 
Font size:    
Page size: 

A A/C# B C#m E F#m7 G#m7
Rate #1 of 5 versions

Jango Player

Login - add to songbook

SHARE PAGE  



You need to log in to post comments