Guitar Tabs, Chords and Lyrics
Update 25:10. 13:00. Site is back up running again. Songbooks are recovered. Woring on getting search back up..


Don’t Walk Away Eileen  Sam Roberts

Donít Walk Away Eileen Ė Sam Roberts
Tabbed by: Chris Kyle
Tuning: Standard
Another tab that hasnít been done right by anyone else so I hope this one's alot better.
Iím confident in everything but the bridge of
tab, it may be a little off but otherwise it sounds good to me.
Intro
 
 e|----------------|
 B|----------------|
 G|-5-5-5-5-5-5-5-5|
 D|-5-5-5-5-5-5-5-5|
 A|-3-3-3-3-3-3-3-3|
 E|----------------|

PM________________
Verse x4
 
 ||-0-------1---0---|------------------|----------------||
 ||*1-------1---1---|------------------|---------------*||
 ||-0-------2---0---|------------------|----------------||
 ||-2-------3---2---|------------------|----------------||
 ||*3-------3---3---|------------------|---------------*||
 ||---------1-------|3-3-3-1-3-3-3-1-3-|3-3-3-1-3-3-3-1-||

Don't walk away Eileen
I've been living for you since the age of seventeen
Don't walk away Eileen
You've been telling lies and now it's time to come clean
Chorus
[F]Hey! [C]You come around and I
[F]Hey! [C]You come around and I
[F]Hey! [C]You come around and I [F]can't [C]keep [G]time
[F]Hey! [C]You turn around and I'm
[F]Hey! [C]You turn around and I'm
[F]Hey! [C]You turn around and I'm left behind
Verse x4
 
 ||-0-------1---0---|------------------|----------------||
 ||*1-------1---1---|------------------|---------------*||
 ||-0-------2---0---|------------------|----------------||
 ||-2-------3---2---|------------------|----------------||
 ||*3-------3---3---|------------------|---------------*||
 ||---------1-------|3-3-3-1-3-3-3-1-3-|3-3-3-1-3-3-3-1-||

Eileen says I'm a boy not a man
Cryin' in on corner with my head in my hands
I called her name and she ran
Slippin' through my fingers like a fist full of sand
( Tab from: http://www.guitartabs.cc/tabs/s/sam_roberts/dont_walk_away_eileen_tab_ver_2.html )
Chorus
[F]Hey! [C]You come around and I
[F]Hey! [C]You come around and I
[F]Hey! [C]You come around and I [F]lose [C]my [G]head
[F]Hey! [C]You turn around and I'm
[F]Hey! [C]You turn around and I'm
[F]Hey! [C]You turn around and I'm [F]left [C]for [G]dead
Bridge
 
 ||-----------------|---------------|----------------|
 ||*----------------|---------------|----------------|
 ||-------0-------0-|------0--------|------0-------0-|
 ||-----3-------3---|----3------3-2-|----3-------3---|
 ||*3-3-----3-3-----|3-3----3-3-----|----------------|
 ||-----------------|---------------|3-3-----3-3-----|

X
 
 |----------------||
 |---------------*||
 |----------------||
 |------0---------||
 |----------------||
 |----2-------3-2*||
 |3-3-----3-3-----||

And she reads my mind when I'm sleepin'
And she always arrives when I'm leavin'
Yeah she's blocking out the sun, it seems
You're a pacifist with a gun, Eileen
Chorus
[F]Hey! [C]You come around and I
[F]Hey! [C]You come around and I
[F]Hey! [C]You come around and I [F]can't [C]keep [G]time
[F]Hey! [C]You turn around and I'm
[F]Hey! [C]You turn around and I'm
[F]Hey! [C]You turn around and I'm [F]left [C]be[G]hind
[F]Hey! [C]You come around and I
[F]Hey! [C]You come around and I
[F]Hey! [C]You come around and I [F]lose [C]my [G]head
[F]Hey! [C]You turn around and I'm
[F]Hey! [C]You turn around and I'm
[F]Hey! [C]You turn around and I'm [F]left [C]for [G]dead
Verse (Bridge riff played over this in the background)
 
 ||-0-------1---0---|------------------|----------------||
 ||*1-------1---1---|------------------|---------------*||Repeat
 ||-0-------2---0---|------------------|----------------||Until
 ||-2-------3---2---|------------------|----------------||End
 ||*3-------3---3---|------------------|---------------*||
 ||---------1-------|3-3-3-1-3-3-3-1-3-|3-3-3-1-3-3-3-1-||

Don't walk away Eileen
Don't walk away Eileen

Important: The song above is NOT stored on the Chordie server. The original song is hosted at www.guitartabs.cc. Chordie works as a search engine and provides on-the-fly formatting. Chordie does not index songs against artists'/composers' will. To remove this song please click here.

Text color:
Chord color:
Chord grids: 
Font size:    
Page size: 

C F G
Rate #1 of 2 versions

Login - add to songbook

SHARE PAGE  



You need to log in to post comments