Guitar Tabs, Chords and Lyrics
Update 25:10. 13:00. Site is back up running again. Songbooks are recovered. Woring on getting search back up..


My Sweet Fracture  Saves the Day

My Sweet Fracture Tab
Chords
[Bm] [A] [E] [F#] [D] [Asus]  
 
 E|------2------0-------0-------2------X-------0-----------------------]
 B|------3------2-------0-------2------3-------3-----------------------]
 G|------4------2-------1-------2------2-------2-----------------------]
 D|------4------2-------2-------4------0-------2-----------------------]
 A|------2------0-------2-------4--------------0-----------------------]
 E|------X------X-------0-------2--------------X-----------------------]

Intro
[A] [E]  
 
 E|--------|-----------------------------------------------------------]
 B|--------|-----------------------------------------------------------]
 G|--------|-----------------------------------------------------------]
 D|--------|-----------------------------------------------------------]
 A|--2/4---|---4-----4---4-----4-----4---2-----2-----2---2-----2-----2-]
 E|--3/5-5-|-5---5-5---5---5-5---5-5---0---0-0---0-0---0---0-0---0-0---]

[F#] [D]  
 
 E|--------------------------------------------------------------------]
 B|--------------------------------------------------------------------]
 G|--------------------------------------------------------------------]
 D|--------------------------------------4-----7---4-----4---4-7-4-----]
 A|----4-----4-----4---4-----4-----4-5-5---5-5---5---5-5---5-----------]
 E|--2---2-2---2-2---2---2-2---2-2-------------------------------------]

[A]Could you tell me [E]the next time that you're [F#]choking?
I'll run right over to [D]shove some dirt right down your throat
[A]It's nothing I have [E]against you You're just a creep and
you [F#]can't remember the last five [D]years
Verse (Play both verses like this.)
[A] [E]  
 
 E|-----0----0---0-----0-----0---0-----0-----0---0-----0-----0---0----]
 B|-----2-----2---2-----2-----2---2-----0-----0---0-----0-----0---0----]
 G|-2-2-2-2-2-2-2-2-2-2-2-2-2-2-2-2-----1-----1---1-----1-----1---1----]
 D|-2-2-2-2-2-2-2-2-2-2-2-2-2-2-2-2-2-2-2-2-2-2-2-2-2-2-2-2-2-2-2-2----]
 A|-0-0-0-0-0-0-0-0-0-0-0-0-0-0-0-0-2-2-2-2-2-2-2-2-2-2-2-2-2-2-2-2----]
 E|---------------------------------0-0-0-0-0-0-0-0-0-0-0-0-0-0-0-0----]

* * * * * * * * * * * * * * * * * * * *
[F#] [D]  
 
 E|-----2-----2---2-----2-----2---2------------------------------------]
 B|-----2-----2---2-----2-----2---2-----3-----3---3-----3---3-5-3-2----]
 G|-----2-----2---2-----2-----2---2-2-2-2-2-2-2-2-2-2-2-2-2-2-2-2-2----]
 D|-4-4-4-4-4-4-4-4-4-4-4-4-4-4-4-4-0-0-0-0-0-0-0-0-0-0-0-0------------]
 A|-4-4-4-4-4-4-4-4-4-4-4-4-4-4-4-4-0-0-0-0-0-0-0-0-0-0-0-0------------]
 E|-2-2-2-2-2-2-2-2-2-2-2-2-2-2-2-2------------------------------------]

* * * * * * * * * * * * * * * * * *
[A]What's a bond[E] if it dissolves in [F#]water?
I took a piss that lasted [D]longer
( Tab from: http://www.guitartabs.cc/tabs/s/saves_the_day/my_sweet_fracture_crd_ver_2.html )
than you and your manipulations
[A]I called my mom last night
[E]She said, "Sweetie, you don't need some[F#]one
D (hold)
who's more fleeting than fall, Whoaaa
Chorus
[Bm]'Cause don't you [D]love those [A]leaves?[Asus] [A]
[Bm]Don't you [D]wish the [A]orange st[Asus]ayed for[E]ever
[Bm]And Crickets [D]sang in the [A]night[D] [A] [Bm]
[D]All through [E]win[E]ter[E]?"
Verse 2
[A]And I thought, slow [E]down, Chris
Think of all the [F#]time this jerk
has fucked you up and [D]left you down
And he[A]y, I choose my compan[E]y
by the beating of their [F#]hearts
D (hold)
Not the swelling of their heads, Whoaaa
Chorus
[Bm]'Cause don't you [D]love those [A]leaves?[Asus] [A]
[Bm]Don't you [D]wish the [A]orange st[Asus]ayed for[E]ever
[Bm]And Crickets [D]sang in the [A]night[D] [A] [Bm]
[D]All through [E]win[E]ter[E]?"
Outro Riff
(Play Twice Like This, Twice Palm Muted Strumming, Twice Regular Strumming)
[A] [Fm] [E] [D]  
 
 E|-----------------------0--------------0-----------------------------]
 B|--------2--------------------------------------------32h3p2-0------]
 G|-----2-----2--------2-----2--------1-----1--------------------------]
 D|-----------------4-----------4-2-----------2--0--4-----------------]
 A|--0-----------0-----------------------------------------------------]
 E|--------------------------------------------------------------------]

(Outro Riff)
[A] [F#]Besides, I'd [E]rather forget the [D]days we spent
[A]Than try to [F#]stay afloat in [E]shallow [D]water
[A] [F#]Besides, I'd [E]rather forget the [D]days we spent
[A]Than try to [F#]stay afloat in [E]shallow [D]water
(Palm Muted Strumming Chords)
[A]I'd rather forge[F#]t the days we [E]spent
Than try to [D]stay afloat in
[A]I'd rather forge[F#]t the days we [E]spent
D D (hold)
Than try to stay afloat in shallow water
(Regular Strumming Chords)
[A]I'd rather forge[F#]t the days we [E]spent
Than try to [D]stay afloat in
[A]I'd rather forge[F#]t the days we [E]spent
Than try to [D]staaaaaaaaaayyy sad!

Important: The song above is NOT stored on the Chordie server. The original song is hosted at www.guitartabs.cc. Chordie works as a search engine and provides on-the-fly formatting. Chordie does not index songs against artists'/composers' will. To remove this song please click here.

Text color:
Chord color:
Chord grids: 
Font size:    
Page size: 

A Asus Bm D E F# Fm
Rate #1 of 7 versions

Login - add to songbook

SHARE PAGE  



You need to log in to post comments