Guitar Tabs, Chords and Lyrics
Server problems seems to be fixed. Chordie has been experiencing problems with songs disappearing. These issues now seems to be fixed, but still verifying the fix. If you find anything strange, please email admin@chordie.com.


Killing Ground   Saxon

 
 ||---------------------------------------------------||
 ||o-------------------------------------------------o||
 ||o-------------------------------------------------o||
 ||--2-2-2-2---2-2-2-2---3-3---2-2-2-2---2-2-2-2---0--||

 


 


 Pre Verse


 T T T S S T T T S T T S T T T S S T T T S T T S


 

 
 |-------------------------------------------------||
 |-------------------------------------------------||
 |-7-7-7-7-7-7-7-7-7-7-7-7-7-7-7-7-7-7-7-7-7-7-7-7-||
 |-------------------------------------------------||

 


 


 Verse


 $


 T T T S S T T T S T T S T T T S S T T T S T T S


 

 
 |--------------------------------------------------|
 |--------------------------------------------------|
 |-7-7-7-7-7-7-7-7-7-7-7-7-7-7-7-7-7-7-7-7-7-7-7-7--|
 |--------------------------------------------------|

 


 


 T T T S S T T T S T T S T T T S S T T T S T T S


 

 
 |-------------------------------------------------|
 |-------------------------------------------------|
 |-7-7-7-7-7-7-7-7-7-7-7-7-7-7-7-7-7-7-7-7-7-7-7-7-|
 |-------------------------------------------------|

 


 


 T T T S S T T T S T T S T T T S S T T T S T T S


 

 
 |--------------------------------------------------|
 |--------------------------------------------------|
 |-3-3-3-3-3-3-3-3-3-3-3-3-3-3-3-3-3-3-3-3-3-3-3-3--|
 |--------------------------------------------------|

 


 


 T T T S S T T T S T T S T T T S S T T T S T T T T


 

 
 |---------------------------------------------------|
 |-----------------------------------------------5---|
 |-7-7-7-7-7-7-7-7-7-7-7-7-7-7-7-7-7-7-7-7-7-5h7---5-|
 |---------------------------------------------------|

 


 


 T T T S S T T T S T T S T T T S S T T T S T T S


 

 
 |-------------------------------------------------|
 |-------------------------------------------------|
 |-7-7-7-7-7-7-7-7-7-7-7-7-7-7-7-7-7-7-7-7-7-7-7-7-|
 |-------------------------------------------------|

 


 


 T T T S S T T T S T T S T T T S S T T T S T T S


 

 
 |-------------------------------------------------|
 |-------------------------------------------------|
 |-7-7-7-7-7-7-7-7-7-7-7-7-7-7-7-7-7-7-7-7-7-7-7-7-|
 |-------------------------------------------------|

 


 


 T T T S S T T T S T T S T T T S S T T T T T T T T T


 

 
 |--------------------------------------------------------|
 |--------------------------------------------------------|
 |-3-3-3-3-3-3-3-3-3-3-3-3-3-3-3-3-3-3-3p0-2-3p0-2-3p0----|
 |--------------------------------------------------------|

 


 


 T T T S S T T T S T T S T T T S S T T T S T T T T


 

 
 |---------------------------------------------------||
 |---------------------------------------------------||
 |-7-7-7-7-7-7-7-7-7-7-7-7-7-7-7-7-7-7-7-7-7-7-7-7-7-||
 |---------------------------------------------------||

 


 


 Chorus


 T T T T T T T T T T T T T T T T T T T T T T T T T T T T T T T T


 

 
 |------------------------------------------------------------------|
 |------------------------------------------------------------------|
 |-3-3-3-3-3-3-3-3-3-3-3-3-3-3-3-3-0-0-0-0-0-0-0-0-0-0-0-0-0-0-0-0--|
 |------------------------------------------------------------------|

 


 


 T T T T T T T T T T T T T T T T T T T T T T T T T T T T T T T T


 

 
 |------------------------------------------------------------------|
 |------------------------------------------------------------------|
 |------------------------------------------------------------------|
 |-0-0-0-0-0-0-0-0-0-0-0-0-0-0-0-0-0-0-0-0-0-0-0-0-0-0-0-0-0-0-0-0--|

 


 


 T T T T T T T T T T T T T T T T T T T T T T T T T T T T T T T T


 

 
 |-----------------------------------------------------------------|
 |-----------------------------------------------------------------|
 |-3-3-3-3-3-3-3-3-3-3-3-3-3-3-3-3-5-5-5-5-5-5-5-5-5-5-5-5-5-5-5-5-|
 |-----------------------------------------------------------------|

 


 


 T T T T T T T T T T T T T T T T T T T T S T T T T S E


 

 
 |------------------------------------------------------------||
 |------------------------------------------------------------||
 |------------------------------------------------------------||
 |-0-0-0-0-0-0-0-0-0-0-0-0-0-0-0-0-0-0-0-0---0-0-0-0---12\----||

 


 


 Pre Verse/Pre Solo


 D.S.


 T T T T S T T T T S T T S T T T T S T T T T S E


 

 
 ||---------------------------------------------------||
 ||o-------------------------------------------------o||
 ||o-------------------------------------------------o||
 ||--0-0-0-0---0-0-0-0---1-1---0-0-0-0---0-0-0-0---1--||

 


 


 Solo


 T T T S S T T T S T T S T T T S S T T T S T T S


 

 
 ||--------------------------------------------------|
 ||o-------------------------------------------------|
 ||o-------------------------------------------------|
 ||--3-3-3-3-3-3-3-3-3-3-3-3-3-3-3-3-3-3-3-3-3-3-3-3-|

 


 


 T T T S S T T T S T T S T T T S S T T T T T T T T T


 

 
 |-------------------------------------------------------|
 |-------------------------------------------------------|
 |-------------------------------------------------3-5---|
 |-3-3-3-3-3-3-3-3-3-3-3-3-3-3-3-3-3-3-3-3-3-3-3-6-------|

 


 


 T T T S S T T T S T T S T T T S S T T T S S S


 

 
 |-----------------------------------------------|
 |-----------------------------------------------|
 |-6-6-6-6-6-6-6-6-6-6-6-6-6-6-6-6-6-6-6-6-6-6p5-|
 |-----------------------------------------------|

 


 


 T T T S S T T T S T T S T T T S S T T T S T T S


 

 
 |----------------------------------------------------||
 |---------------------------------------------------o||
 |---------------------------------------------------o||
 |-3-3-3-3-3-3-3-3-3-3-3-3-3-3-3-3-3-3-3-3-3-3-3-3----||

 


 


 Verse


 T T T S S T T T S T T S T T T S S T T T S T T S


 

 
 ||--------------------------------------------------|
 ||o-------------------------------------------------|
 ||o-7-7-7-7-7-7-7-7-7-7-7-7-7-7-7-7-7-7-7-7-7-7-7-7-|
 ||--------------------------------------------------|

 


 


 T T T S S T T T S T T S T T T S S T T T S T T S


 

 
 |-------------------------------------------------|
 |-------------------------------------------------|
 |-7-7-7-7-7-7-7-7-7-7-7-7-7-7-7-7-7-7-7-7-7-7-7-7-|
 |-------------------------------------------------|

 


 


 T T T S S T T T S T T S T T T S S T T T T T T T T T


 

 
 |-----------------------------------------------------|
 |-----------------------------------------------------|
 |-3-3-3-3-3-3-3-3-3-3-3-3-3-3-3-3-3-3-3p0-2-3p0-2-3p0-|
 |-----------------------------------------------------|

 


 


 T T T S S T T T S T T S T T T S S T T T S T T T T


 

 
 |------------------------------------------------------||
 |-----------------------------------------------5-----o||
 |-7-7-7-7-7-7-7-7-7-7-7-7-7-7-7-7-7-7-7-7-7-5h7---5---o||
 |------------------------------------------------------||

 


 


 Chorus


 T T T T T T T T T T T T T T T T T T T T T T T T T T T T T T T T


 

 
 ||------------------------------------------------------------------|
 ||o-----------------------------------------------------------------|
 ||o-3-3-3-3-3-3-3-3-3-3-3-3-3-3-3-3-0-0-0-0-0-0-0-0-0-0-0-0-0-0-0-0-|
 ||------------------------------------------------------------------|

 


 


 T T T T T T T T T T T T T T T T T T T T T T T T T T T T T T T T


 

 
 |--------------------------------------------------------------------|
 |--------------------------------------------------------------------|
 |--------------------------------------------------------------------|
 |-0-0-0-0-0-0-0-0-0-0-0-0-0-0-0-0-0-0-0-0-0-0-0-0-0-0-0-0-0-0-0-0----|

 


 


 T T T T T T T T T T T T T T T T T T T T T T T T T T T T T T T T


 

 
 |-----------------------------------------------------------------|
 |-----------------------------------------------------------------|
 |-3-3-3-3-3-3-3-3-3-3-3-3-3-3-3-3-5-5-5-5-5-5-5-5-5-5-5-5-5-5-5-5-|
 |-----------------------------------------------------------------|

 


 


 ( Tab from: http://www.guitartabs.cc/tabs/s/saxon/killing_ground_btab.html )


 T T T T T T T T T T T T T T T T T T T T T T T T T T T T T T T T


 

 
 |---------------------------------------------------------------------||
 |--------------------------------------------------------------------o||
 |--------------------------------------------------------------------o||
 |-0-0-0-0-0-0-0-0-0-0-0-0-0-0-0-0-0-0-0-0-0-0-0-0-0-0-0-0-0-0-0-0-----||

 


 


 Bass Solo


 ~


 W Q +E S S +H


 

 
 |----------|----------------------|
 |----------|----------------------|
 |----------|-------------7-(7)----|
 |-0--------|-12\--(12)-0-0-(0)----|
 |---3---| |-3-| |-3-| |-3-| |-3-| |-3--| |--3--|

 


 E S S S S S S S S S S S S S S S S S S S S S S


 

 
 |---------------------2-5p2-7-9p7-9-12p9-12-14p12-14-|
 |---------------2-5p2--------------------------------|
 |---------2-5p2--------------------------------------|
 |-0-0-3p0--------------------------------------------|
 |--3--| |--3--|

 


 S S S S S S H.


 

 
 |-17p14-17-19p17-19-21-----|
 |-------------------21-----|
 |--------------------------|
 |--------------------------|

 


 


 ~~


 

 
 |-3-| |-3-| |-3-| |-3--| |-3-| |-3-| |-3-|

 


 Q H. S S S E +Q +E T T T T T T T T T T T T T T T T T T


 

 
 |-21\----------|-9p7h9-9-(9)--(9)-----------7-9-12-9-7------------------|
 |-21\----------|----------------------5-7-9------------9-7-5------------|
 |------7-------|------------------5-7------------------------7-5-2------|
 |------0-------|---------------------------------------------------5-3--|

 


 


 [2/4] [4/4]  

 
 |--3--| |-3--| |-3-| |-3-| |-3-| |-3-| |-3-| |-3-| |-3-|

 


 E +E. S E +S S S S S S S S S E E E S S S S S S S S S S S S


 

 
 |-------------------|-------------5p4-----------------------------|
 |---------------0h2-|-----------------5\-------------7---7-5h7----|
 |-------2h3-(3)-----|-3-3-3-3-3-3--------5-5-5-5-5-5---5-------7\-|
 |-0-(0)-------------|---------------------------------------------|
 |-3-| |--3--| |---3---|

 


 Q E S S S S E. +E E S S S S


 

 
 |----------------------7-5p0-4p0-|
 |-------------5------------------|
 |-7\----3-5-7---7--(7)-----------|
 |-----0--------------------------|
 |-3-| |-3-| |-3-| |-3-| |-3-| |-3-| |-3-| |-3-|

 


 S S S S S S S S S S S S S S S S S S S S S S S S


 

 
 |-------------------4h5h7--------------------------|
 |-------------5p4---------------------7---7-5h7----|
 |-3-3-3-3-3-3-----5-------5-5-5-5-5-5---5-------7\-|
 |--------------------------------------------------|
 |-3-| |-3-| |---3----| |---3---|

 


 Q S S S S S S E E S S E E S S


 

 
 |-----------------14-12------------------|
 |---------5h7-7-7-------14p12-14-12-10p9-|
 |-7\--5h7--------------------------------|
 |----------------------------------------|
 |-3-| |-3-| |------3------| |--3--| |--3--| |---3----|

 


 S S S S S S E +S S S S S S S S S S S E S E


 

 
 |-7-5-------------------------------------------14p12--------|
 |-----7-5---------------------------------12h14-------14p12--|
 |---------7-5-3\-(3)-------10----10h12-14--------------------|
 |--------------------10h12----12-----------------------------|

 


 


 ~~


 

 
 |--3--| |---3----|

 


 H E E E E E S S


 

 
 |-------19-17-16-------------|
 |----------------19-17-------|
 |-14-------------------19p17-|
 |----------------------------|

 


 


 ~


 

 
 |--3--| |--3--| |--3--| |--3--| |-3-| |-3-| |--3--|

 


 E E E E E E E E S S E E S S Q S S S S S S Q Q Q


 

 
 |-19-17-16----------7-5-------------|--------------7-----------||
 |----------19-17-16-----7p5-7-5-4---|--------5-7-9-------------||
 |---------------------------------5-|-7--5-7---------7\-7\-7\--||
 |-----------------------------------|--------------------------||

 


 


 Chorus


 T T T T T T T T T T T T T T T T T T T T T T T T T T T T T T T T


 

 
 ||------------------------------------------------------------------|
 ||o-----------------------------------------------------------------|
 ||o-3-3-3-3-3-3-3-3-3-3-3-3-3-3-3-3-0-0-0-0-0-0-0-0-0-0-0-0-0-0-0-0-|
 ||------------------------------------------------------------------|

 


 


 T T T T T T T T T T T T T T T T T T T T T T T T T T T T T T T T


 

 
 |--------------------------------------------------------------------|
 |--------------------------------------------------------------------|
 |--------------------------------------------------------------------|
 |-0-0-0-0-0-0-0-0-0-0-0-0-0-0-0-0-0-0-0-0-0-0-0-0-0-0-0-0-0-0-0-0----|

 


 


 T T T T T T T T T T T T T T T T T T T T T T T T T T T T T T T T


 

 
 |-----------------------------------------------------------------|
 |-----------------------------------------------------------------|
 |-3-3-3-3-3-3-3-3-3-3-3-3-3-3-3-3-5-5-5-5-5-5-5-5-5-5-5-5-5-5-5-5-|
 |-----------------------------------------------------------------|

 


 


 T T T T T T T T T T T T T T T T T T T T T T T T T T T T T T T T


 

 
 |---------------------------------------------------------------------||
 |--------------------------------------------------------------------o||
 |--------------------------------------------------------------------o||
 |-0-0-0-0-0-0-0-0-0-0-0-0-0-0-0-0-0-0-0-0-0-0-0-0-0-0-0-0-0-0-0-0-----||

 


 


 Outro


 T T T T T T T T T T T T T T T T T T T T T T T T T T T T T T T T


 

 
 |-----------------------------------------------------------------|
 |-----------------------------------------------------------------|
 |---------------------------------0-0-0-0-0-0-0-0-0-0-0-0-0-0-0-0-|
 |-3-3-3-3-3-3-3-3-3-3-3-3-3-3-3-3---------------------------------|

 


 


 T T T T T T T T T T T T T T T T T T T T T T T T T T T T T T T T


 

 
 |--------------------------------------------------------------------|
 |--------------------------------------------------------------------|
 |-2-2-2-2-2-2-2-2-2-2-2-2-2-2-2-2-3-3-3-3-3-3-3-3-3-3-3-3-3-3-3-3----|
 |--------------------------------------------------------------------|

 


 


 T T T T T T T T T T T T T T T T T T T T T T T T T T T T T T T T


 

 
 |-----------------------------------------------------------------|
 |-----------------------------------------------------------------|
 |-5-5-5-5-5-5-5-5-5-5-5-5-5-5-5-5-7-7-7-7-7-7-7-7-7-7-7-7-7-7-7-7-|
 |-----------------------------------------------------------------|

 


 


 T T T T T T T T T T T T T T T T T T T T T T T T T T T T T T T T


 

 
 |--------------------------------------------------------------------|
 |-4-4-4-4-4-4-4-4-4-4-4-4-4-4-4-4-5-5-5-5-5-5-5-5-5-5-5-5-5-5-5-5----|
 |--------------------------------------------------------------------|
 |--------------------------------------------------------------------|

 


 


 T T T T S T T T T S T T S T T T T S T T T T S E


 

 
 ||---------------------------------------------------||
 ||o-5-5-5-5---5-5-5-5---6-6---5-5-5-5---5-5-5-5---3-o||
 ||o-------------------------------------------------o||
 ||---------------------------------------------------||

 


 


 [1/4] Q [4/4] W +W +W +W


 

 
 |----|----------|------------|------------|--------*|
 |----|----------|------------|------------|--------*|
 |----|----------|------------|------------|--------*|
 |----|-1--------|-(1)--------|-(1)--------|-(1)----*|

 


 


 


 Duration Legend


 

 
 ---------------
 W - whole; H - half; Q - quarter; E - 8th; S - 16th; T - 32nd; X - 64th; a - acciaccatura

 


 + - note tied to previous; . - note dotted; .. - note double dotted


 Uncapitalized letters represent notes that are staccato (1/2 duration)


 Irregular groupings are notated above the duration line


 Duration letters will always appear directly above the note/fret number it represents the


 duration for. Duration letters with no fret number below them represent rests. Multi-


 bar rests are notated in the form Wxn, where n is the number of bars to rest for. Low


 melody durations appear below the staff


 


 Tablature Legend


 

 
 ----------------

 


 h - hammer-on


 p - pull-off


 b - bend


 pb - pre-bend


 r - bend release (if no number after the r, then release immediately)


 /\ - slide into or out of (from/to "nowhere")


 s - legato slide


 S - shift slide


 - natural harmonic


 (n) - artificial harmonic


 n(n) - tapped harmonic


 ~ - vibrato


 tr - trill


 T - tap


 TP - trem. picking


 PM - palm muting


 \n/ - tremolo bar dip; n = amount to dip


 \n - tremolo bar down


 n/ - tremolo bar up


 /n\ - tremolo bar inverted dip


 = - hold bend; also acts as connecting device for hammers/pulls


 - volume swell (louder/softer)


 x - on rhythm slash represents muted slash


 o - on rhythm slash represents single note slash


 


 Misc Legend


 

 
 -----------


Important: The song above is NOT stored on the Chordie server. The original song is hosted at www.guitartabs.cc. Chordie works as a search engine and provides on-the-fly formatting. Chordie does not index songs against artists'/composers' will. To remove this song please click here.

This song is displayed as text-only. Transposing and tuning is only available for chordpro-songs.
Rate #1 of 1 versions

Jango Player

Login - add to songbook

SHARE PAGE  



You need to log in to post comments