Guitar Tabs, Chords and Lyrics
Server problems seems to be fixed. Chordie has been experiencing problems with songs disappearing. These issues now seems to be fixed, but still verifying the fix. If you find anything strange, please email admin@chordie.com.


Suzie Hold On  Saxon

Saxon – Suzie Hold On
Artist: Saxon
Song: Suzie Hold On
Album: Wheels of Steel
Tabbed by: MaggaraMarine
Tuning: Whole step down standard (DGCFAD)
Tab Legend:
. (under the staff) palm mute
x mute
( ) tie note
\ slide down
b bend
r release bend
hb hold bend
v vibrato
W whole note
H.. double dotted half note
H. dotted half note
H half note
Q. dotted quarter note
Q quarter note
E 8th note
S 16th note
 
 |---3---| triplet

Bass Intro (4 bars)
Intro Riff:
[D5]Q. [A5]Q E [G]Q W
 
 D|-----------------|------|
 A|-3-----------0---|-(0)--|
 F|-2-----2---x-0---|-(0)--|
 C|-0-----2---x-0---|-(0)--|
 G|-------0---x-----|------|
 D|-------------3---|-(3)--|

Repeat 4 times
[D5]Q. [A5]Q E [G]Q Q. E [G5]E E[A5] Q
 
 Gtr 1: D|-----------------|-------------------|
 A|-3-----------0---|-(0)---------------|
 F|-2-----2---x-0---|-(0)--------0-2-2--|
 C|-0-----2---x-0---|-(0)------x-0-2-2--|
 G|-------0---x-----|----------x---0-0--|
 D|-------------3---|-(3)------x-3------|

| | |
| Q. Q E Q | Q E E Q Q |
 
 Gtr 2: D|-----------------|-------------------|
 A|-3-----------0---|-(0)---------------|
 F|-2-----2---x-0---|-(0)--------0---2--|
 C|-0-----2---x-0---|-(0)--------0---2--|
 G|-------0---x-----|----------------0--|
 D|-------------3---|-(3)----3-3-3------|

. .
Repeat 4 times
Verse Riff:
Gtr 1 keeps playing the same
[D5]Q. [A5]Q E [G]Q Q E E [G5]E E[A5] Q
 
 Gtr 2: D|-----------------|-------------------|
 A|-3-----------0---|-(0)---------------|
 F|-2-----2---x-0---|-(0)--------0---2--|
 C|-0-----2---x-0---|-(0)--------0---2--|
 G|-------0---x-----|--------------0-0--|
 D|-------------3---|-(3)----3-3-3------|

. . .
Repeat 7 times
Both Guitars:
[D5]Q. [A5]Q E [G]Q H. Q
 
 D|-----------------|----------|
 A|-3-----------0---|-(0)------|
 F|-2-----2---x-0---|-(0)------|
 C|-0-----2---x-0---|-(0)------|
 G|-------0---x-----|------10\-|
 D|-------------3---|-(3)------|

Chorus:
[A5]Q. [D5A5D5A5]E E E Q E [A5]Q E [A6]Q [A6]Q
 
 D|-----------------|----------------|
 A|-----------------|----------------|
 F|-2-------2---2---|-x-2------------|
 C|-2-----0-2-0-2---|-x-2-----4---4--|
 G|-0-----0-0-0-0---|-x-0---0-0---0--|
 D|-----------------|----------------|

Repeat 4 times
After that play:
Verse
Chorus
Verse (ending w/out slide like this:)
[D5]Q. [A5]Q E [G]Q W
 
 D|-----------------|------|
 A|-3-----------0---|-(0)--|
 F|-2-----2---x-0---|-(0)--|
 C|-0-----2---x-0---|-(0)--|
 G|-------0---x-----|------|
 D|-------------3---|-(3)--|

Bridge:
Let ring
[Csus2]Q E Q E Q [G]E E E E E E E E
 
 D|-----------------|-----------------|
 A|-----------------|-----------------|
 F|-----0-----------|-----0-----0-----|
 C|-----------0-----|---0---0-----0---|
 G|-3-----3-----3---|-2-------------2-|
 D|-----------------|---------3-------|

[D]Q. [Dsus4]Q. [D]Q E [Dsus4]Q. E [D]Q.
 
 Gtr 1: D|-----------------|-----------------|
 A|-3-----3-----3---|(3)--3-----3-3---|
 F|-2-----2-----2---|(2)--2-----2-2---|
 C|-0-----0-----0---|(0)--0-----0-0---|
 G|-----------------|-----------------|
 D|-----------------|-----------------|

| | |
| | |
 
 Gtr 2: D|-2-----3-----2----(2)--15---15-14\-|
 A|-3-----3-----3---|(3)--15---15-15\-|
 F|-2-----2-----2---|(2)--14---14-14\-|
 C|-0-----0-----0---|(0)--12---12-12\-|
 G|-----------------|-----------------|
 D|-----------------|-----------------|

Both Guitars:
Let ring
[Csus2]Q E Q E Q [G]E E E E E E E E
 
 D|-----------------|-----------------|
 A|-----------------|-----------------|
 F|-----0-----------|-----0-----0-----|
 C|-----------0-----|---0---0-----0---|
 G|-3-----3-----3---|-2-------------2-|
 D|-----------------|---------3-------|

Chorus riff 4 times
Solo Riff:
“E-Riff”
[E5]Q. [A5E5A5E5]E E E Q E [E5]Q E [A5]Q [A5]Q
 
 D|-----------------|-----------------|
 A|-----------------|-----------------|
 F|-4-----2-4-2-4---|-x-4---x-2---2---|
 C|-2-----2-2-2-2---|-x-2---x-2---2---|
 G|-----------------|-----------------|
 D|-----------------|-----------------|

“F#-Riff”
[F#5]Q. [B5F#5B5F#5] E E E Q E[F#5] Q E [B5]Q Q
 
 D|-----------------|-----------------|
 A|-----------------|-----------------|
 F|-6-----4-6-4-6---|-x-6---x-4---4---|
 C|-4-----4-4-4-4---|-x-4---x-4---4---|
 G|-----------------|-----------------|
 D|-----------------|-----------------|

Guitar Solo:
Rhythm guitars: “E-Riff”
 
 |---3---|

Q W H Q Q Q
 
 Ldgtr 1 D|-------|------|------14-15-17-|
 A|-15b17-|-hb17-|(17)-----------|
 F|-------|------|---------------|
 C|-------|------|---------------|
 G|-------|------|---------------|
 D|-------|------|---------------|

| | | |
| | | |
 
 LdGtr 2 D|-------|------|------------10-|
 A|-------|------|------10-12----|
 F|-11b12-|-hb12-|(12)-----------|
 C|-------|------|---------------|
 G|-------|------|---------------|
 D|-------|------|---------------|

( Tab from: http://www.guitartabs.cc/tabs/s/saxon/suzie_hold_on_tab.html )
Q. S S H H E E E E
 
 D|-14----15-14-15b17-|(17)------------------|
 A|-------------------|----------------------|
 F|-------------------|-----14b16r14-12-14b16|
 C|-------------------|----------------------|
 G|-------------------|----------------------|
 D|-------------------|----------------------|

| | |
| | |
 
 D|-------------------|----------------------|
 A|-10----12-10-------|----------------------|
 F|-------------11b12-|(12)-11b12r11-9--11b12|
 C|-------------------|----------------------|
 G|-------------------|----------------------|
 D|-------------------|----------------------|
 |---3---|

W H Q Q Q
 
 D|-----|--------------|
 A|-----|-----------15-|
 F|(16)-|(16)-14-16----|
 C|-----|--------------|
 G|-----|--------------|
 D|-----|--------------|

| | |
| | |
 
 D|-----|--------------|
 A|-----|--------------|
 F|(12)-|(12)----------|
 C|-----|--------------|
 G|-----|-----9--10-12-|
 D|-----|--------------|

Q. S S H W
 
 D|-------------------|------|
 A|-------------------|------|
 F|-14----16-14-------|------|
 C|-------------16b17-|-(17)-|
 G|-------------------|------|
 D|-------------------|------|

| | |
| | |
 
 D|-------------------|------|
 A|-------------------|------|
 F|-------------------|------|
 C|-------------------|------|
 G|-9-----10-9--------|------|
 D|-------------10b12-|-(12)-|

Rhythm Guitars: “F#-Riff”
 
 |---3---|

W H Q Q Q
 
 Ldgtr 1 D|-------|------16-17-19-|
 A|-17b19-|(19)-----------|
 F|-------|---------------|
 C|-------|---------------|
 G|-------|---------------|
 D|-------|---------------|

| | |
| | |
 
 LdGtr 2 D|-------|------------12-|
 A|-------|------12-14----|
 F|-13b14-|(14)-----------|
 C|-------|---------------|
 G|-------|---------------|
 D|-------|---------------|

Q. S S H H E E E E
 
 D|-16----17-16-17b19-|(19)------------------|
 A|-------------------|----------------------|
 F|-------------------|-----16b18r16-14-16b18|
 C|-------------------|----------------------|
 G|-------------------|----------------------|
 D|-------------------|----------------------|

| | |
| | |
 
 D|-------------------|----------------------|
 A|-12----14-12-------|----------------------|
 F|-------------13b14-|(14)-13b14r13-11-13b14|
 C|-------------------|----------------------|
 G|-------------------|----------------------|
 D|-------------------|----------------------|
 |---3---|

W H Q Q Q
 
 D|-----|--------------|
 A|-----|-----------17-|
 F|(18)-|(18)-16-18----|
 C|-----|--------------|
 G|-----|--------------|
 D|-----|--------------|

| | |
| | |
 
 D|-----|--------------|
 A|-----|--------------|
 F|(14)-|(14)----------|
 C|-----|--------------|
 G|-----|-----11-12-14-|
 D|-----|--------------|

Q. S S H W
 
 D|-------------------|------|
 A|-------------------|------|
 F|-16----18-16-------|------|
 C|-------------18b19-|-(19)-|
 G|-------------------|------|
 D|-------------------|------|

| | |
| | |
 
 D|-------------------|------|
 A|-------------------|------|
 F|-------------------|------|
 C|-------------------|------|
 G|-11----12-11-------|------|
 D|-------------12b13-|-(13)-|

Rhythm guitars: “E-Riff”
 
 |---3---|

W H Q Q Q
 
 Ldgtr 1 D|-------|------14-15-17-|
 A|-15b17-|(17)-----------|
 F|-------|---------------|
 C|-------|---------------|
 G|-------|---------------|
 D|-------|---------------|

| | |
| | |
 
 LdGtr 2 D|-------|------------10-|
 A|-------|------10-12----|
 F|-11b12-|(12)-----------|
 C|-------|---------------|
 G|-------|---------------|
 D|-------|---------------|

Q. S S H H E E E E
 
 D|-14----15-14-15b17-|(17)------------------|
 A|-------------------|----------------------|
 F|-------------------|-----14b16r14-12-14b16|
 C|-------------------|----------------------|
 G|-------------------|----------------------|
 D|-------------------|----------------------|

| | |
| | |
 
 D|-------------------|----------------------|
 A|-10----12-10-------|----------------------|
 F|-------------11b12-|(12)-11b12r11-9--11b12|
 C|-------------------|----------------------|
 G|-------------------|----------------------|
 D|-------------------|----------------------|
 |---3---|

W H Q Q Q
 
 D|-----|--------------|
 A|-----|-----------15-|
 F|(16)-|(16)-14-16----|
 C|-----|--------------|
 G|-----|--------------|
 D|-----|--------------|

| | |
| | |
 
 D|-----|--------------|
 A|-----|--------------|
 F|(12)-|(12)----------|
 C|-----|--------------|
 G|-----|-----9--10-12-|
 D|-----|--------------|

Q. S S H W
 
 D|-------------------|------|
 A|-------------------|------|
 F|-14----16-14-------|------|
 C|-------------16b17-|-(17)-|
 G|-------------------|------|
 D|-------------------|------|

| | |
| | |
 
 D|-------------------|------|
 A|-------------------|------|
 F|-------------------|------|
 C|-------------------|------|
 G|-9-----10-9--------|------|
 D|-------------10b12-|-(12)-|

Interlude:
[D5]Q. [A5]Q E [G]Q H.. [D5]S S
 
 D|-----------------|------------|
 A|-3-----------0---|-(0)----3-3-|
 F|-2-----2---x-0---|-(0)----2-2-|
 C|-0-----2---x-0---|-(0)----0-0-|
 G|-------0---x-----|------------|
 D|-------------3---|-(3)--------|

Repeat 3 times
[D5]Q. [A5]Q E [G]Q W
 
 D|-----------------|------|
 A|-3-----------0---|-(0)--|
 F|-2-----2---x-0---|-(0)--|
 C|-0-----2---x-0---|-(0)--|
 G|-------0---x-----|------|
 D|-------------3---|-(3)--|

| | |
 
 |LdGtr pickslide--|----->|

Outro:
[D5]Q. [A5]Q E [G]Q W
 
 D|-----------------|------|
 A|-3-----------0---|-(0)--|
 F|-2-----2---x-0---|-(0)--|
 C|-0-----2---x-0---|-(0)--|
 G|-------0---x-----|------|
 D|-------------3---|-(3)--|

Repeat 2 times and continue until fade out.
After those 2 times Ldgtr plays:
E E E Q E Q Q E E H
 
 D|-----------------|-----------------|
 A|-----------------|-----------------|
 F|-----2-----------|-----------------|
 C|---4-------2-----|-----------------|
 G|-5-----4-----2---|(2)--0-----------|
 D|-----------------|-------3-(3)-----|

Continue until fade out.
The whole song goes like this:
Intro
Verse
Chorus
Verse
Chorus
Verse
Bridge
Guitar Solo
Interlude
Outro
Check out the Power Tab version too if you want to learn the song easier.

Important: The song above is NOT stored on the Chordie server. The original song is hosted at www.guitartabs.cc. Chordie works as a search engine and provides on-the-fly formatting. Chordie does not index songs against artists'/composers' will. To remove this song please click here.

Text color:
Chord color:
Chord grids: 
Font size:    
Page size: 

A5 A6 B5 Csus2 D D5 Dsus4 E5 F#5 G G5
Rate #2 of 4 versions

Jango Player

Login - add to songbook

SHARE PAGE  



You need to log in to post comments