Guitar Tabs, Chords and Lyrics
Server problems seems to be fixed. Chordie has been experiencing problems with songs disappearing. These issues now seems to be fixed, but still verifying the fix. If you find anything strange, please email admin@chordie.com.


Garden  Sean Hayes

 
 -------------------------------------------------------------------------------

GARDEN - Sean Hayes
 
 -------------------------------------------------------------------------------

Tabbed by: Ashley
Email: solush@gmail.com
Chords from this video: http://www.youtube.com/watch?v=c6zYDdo2jOo
The video is played in standard tuning, but the album version is performed 3 half-steps
down (key of C#) - the same chords are used on the album version. Included the chords
along with lyrics in case anything in the tab isn't clear or in case you just want to
strum the chords! For the instrumental break, if you want to just do chords, I'd either
continue with the chorus chords in order or just figure out an order you think fits in
well. It's not 100%, but close enough imo :)
Tuning: Standard (video) or C# F# B E G# C# (album)
Chords:
Em | Am | Dsus4
 
 e|----|-----|-----|
 B|----|--1--|-----|
 G|-0--|--2--|--0--|
 D|-2--|--2--|--0--|
 A|-2--|--0--|--x--|
 E|-0--|-----|--3--|

Intro:
 
 e|------------------|
 B|---------1--------|
 G|---0-----2--------|
 D|---2-----2-----2~-|
 A|---2---0-0-----2~-|
 E|-0-0-3-----3-0-0~-|

Verse:
When the morning ...
 
 e|------------------|
 B|-------1-------1--|
 G|---0---2---0---2--|
 D|---2---2---0---2--|
 A|---2-0-0---x-0-0--|
 E|-0-0-----3-3------|

Chorus:
Oh, where to take our journey ...
 
 e|-------------------|
 B|------------1------|
 G|----0---0---2---0--|
 D|----2---0---2---0--| x3
 A|----2---x-0-0---x--|
 E|--0-0-3-3-----3-3--|

Oh, oh you and I you and I
 
 e|------------|
 B|---------1~-|
 G|---0---0-2~-|
 D|---2---0-2~-|
 A|---2---x-0~-|
 E|-0-0-3-3----|

Verse:
Take the road we take ...
Chorus
Oh, where to take our journey ...
 
 e|-------------------|
 B|------------1------|
 G|----0---0---2---0--|
 D|----2---0---2---0--| x3
 A|----2---x-0-0---x--|
 E|--0-0-3-3-----3-3--|

Oh, oh you and I you and I
 
 e|------------|
 B|---------1~-|
 G|---0---0-2~-|
 D|---2---0-2~-|
 A|---2---x-0~-|
 E|-0-0-3-3----|

you and I, you and I ...
 
 e|-------------------|
 B|------------1------|
 G|----0---0---2---0--|
 D|----2---0---2---0--|
 A|----2---x-0-0---x--|
 E|--0-0-3-3-----3-3--|

break
 
 e|-------------------------------0---3---3--------|
 B|---------1---------------------0---1---0--------|
 G|---0-----2---------------------0---2---0---2-2-0|
 D|---2-----2-----2-2-2-2-x-x-----2---2---0---2-2--|
 A|---2---0-0-----2-2-2-2-2-2-----2-0-----x-0------|
 E|-0-0-3-----3-0-0-0-0-0-0-0-3-0-0-----3-3--------|
 e|----------------------|-----------------------------|
 B|-------1-------1-(play|----------1------------------|
 G|---0---2---0---2-whole|----0-----2------------------|
 D|---2---2---0---2- bar-|----2-----2-----2-2-2-2-x-x--|
 A|---2-0-0---x-0-0- 2x)-|----2---0-0-----2-2-2-2-2-2--|
 E|-0-0-----3-3----------|--0-0-3-----3-0-0-0-0-0-0-0-3|

Verse:
When the morning breaks ...
Chorus:
Oh, where to take our journey ...
 
 e|-------------------|
 B|------------1------|
 G|----0---0---2---0--|
 D|----2---0---2---0--| x3
 A|----2---x-0-0---x--|
 E|--0-0-3-3-----3-3--|

Oh, oh you and I you and I
 
 e|------------|
 B|---------1~-|
 G|---0---0-2~-|
 D|---2---0-2~-|
 A|---2---x-0~-|
 E|-0-0-3-3----|

you and I, you and I ... (to end)
 
 e|-------------------|
 B|------------1------|
 G|----0---0---2---0--|
 D|----2---0---2---0--|
 A|----2---x-0-0---x--|
 E|--0-0-3-3-----3-3--|

End on Em
 
 -------

Intro:
[Em] [/] [Am] [/] [Em]  
Verse:
[Em]When the [Am]morning breaks [Dsus4]We will [Am]be out walking
[Em] We will w[Am]atch the sun [Dsus4]Rise a[Am]bove the walls
[Em] We will a[Am]sk ourselv[Dsus4]es What [Am]road to take
[Em] We will c[Am]atch our hearts[Dsus4] You and [Am]I decide
Chorus:
[Em]Oh,[Dsus4] oh, o[Am]h Where to [Dsus4]take our journey
[Em]oh,[Dsus4] oh, o[Am]h How [Dsus4]high to fly
[Em]Oh,[Dsus4] oh, o[Am]h, Love to [Dsus4]love our turning
Em Dsus4 Am (ring)
Oh, oh, oh, oh, oh You and I
Verse:
[Em]Take the [Am]road we take[Dsus4] Then we [Am]improvise
[Em] When the [Am]road it break[Dsus4]s There will [Am]be surprises
[Em] Live and g[Am]row with fa[Dsus4]te Wake to see y[Am]our Time
Catch your heart with mine You and I decide
Chorus:
[Em]Oh,[Dsus4] oh, o[Am]h Where to [Dsus4]take our journey
[Em]oh,[Dsus4] oh, o[Am]h How [Dsus4]high to fly
[Em]Oh,[Dsus4] oh, o[Am]h, Love to [Dsus4]love our turning
Em Dsus4 Am (ring)
Oh, oh, oh, oh, oh You and I
[Em] [Dsus4] [Am]You and [Dsus4]I, you and I
[Em] [Dsus4] [Am]you and [Dsus4]I, you and I
[Em] Garden [Dsus4]grows around us[Am] you and I[Dsus4], you and I
[Em] Garden [Dsus4]grows around us[Am] you and I[Dsus4], you and I
Instrumental break
Verse:
[Em]When the [Am]morning breaks [Dsus4]We will [Am]be out walking
[Em] We will w[Am]atch the sun [Dsus4]Rise a[Am]bove the walls
[Em] We will a[Am]sk ourselv[Dsus4]es What [Am]road to take
[Em] We will c[Am]atch our hearts[Dsus4] You and [Am]I decide
Chorus:
[Em]Oh,[Dsus4] oh, o[Am]h Where to [Dsus4]take our journey
[Em]oh,[Dsus4] oh, o[Am]h How [Dsus4]high to fly
[Em]Oh,[Dsus4] oh, o[Am]h, Love to [Dsus4]love our turning
Em Dsus4 Am (ring)
Oh, oh, oh, oh, oh You and I
[Em] [Dsus4] [Am]You and [Dsus4]I, you and I
[Em] Garden [Dsus4]grows around us[Am] you and I[Dsus4], you and I
[Em] Garden [Dsus4]grows around us[Am] you and I[Dsus4], you and I
[Em] Garden [Dsus4]grows around us[Am] you and I[Dsus4], you and I
[Em] o[Dsus4]oh oooh ooh[Am] you and I[Dsus4] you and I
[Em] o[Dsus4]oh oooh ooh[Am] you and I[Dsus4] you and I
[Em] o[Dsus4]oh oooh ooh[Am] you and I[Dsus4] you and I
[Em] o[Dsus4]oh oooh[Am]
End on Em
************************************
| / slide up
| \ slide down
| h hammer-on
| p pull-off
| ~ vibrato
| + harmonic
| x Mute note
| B Bend
| pb Pre-bend
| br Bend release
| pbr Pre-bend release
| brb Bend release bend
************************************

Important: The song above is NOT stored on the Chordie server. The original song is hosted at www.guitartabs.cc. Chordie works as a search engine and provides on-the-fly formatting. Chordie does not index songs against artists'/composers' will. To remove this song please click here.

Text color:
Chord color:
Chord grids: 
Font size:    
Page size: 

Am Dsus4 Em
Rate #1 of 3 versions

Jango Player

Login - add to songbook

SHARE PAGE  



You need to log in to post comments