Guitar Tabs, Chords and Lyrics
Major upgrade!! After one year development the new version of Chordie is now online! Please give feedback.


Como la flor  Selena

com[D]o la flor(como la flor)
tanto a[E]mor(tanto amor)
me diste t[A]u
se marc[F#m]hito
me marcho [D]hoy
yo se per[E]der
pero[D] a-a-[E]ay como me d[A]uele
[D]A-A[E]-ay como me [A]duele
 
 G---------------------------------------------------
 B---11-------11-8-10-11--------10-11------11-11-10-8
 e-10--8-11-10-------8--11-10-13-----8-10-8----------
 G---------------------------------------------------
 B---------10-11------11-----------------------------
 e-11-10-13-----8-10-8-------------------------------

y[A]o se [D]tienes
un n[E]uevo amor
sin e[A]mbargo
te des[D]eo lo m[E]ejor
si en mi[A] no encontras[D]te
fel[E]icidad
talv[A]ez alguien m[D]as
te [E]la dara
( Tab from: http://www.guitartabs.cc/tabs/s/selena/como_la_flor_crd.html )
como la [D]flor(como la flor)
tanto a[E]mor(tanto amor)
me diste t[A]u
se marc[F#m]hito
me marcho [D]hoy
yo se per[E]der
pero[D] a-a-[E]ay como me d[A]uele
[D]A-A[E]-ay como me [A]duele
puente
 
 G---------------------------------------------------
 B---------10-11------11-----------------------------
 e-11-10-13-----8-10-8-------------------------------

si[A] vieras como d[D]uele
pe[E]rder tu amor
co[A]n tu adios te l[D]levas
m[E]i corazon
no[A] se si pue[D]da
volv[E]er a amar
porque t[A]e di
todo[D] el amor que pued[E]e dar
como la flor.....
final:
 
 G---------------------------------------------------
 B---11-------11-8-10-11--------10-11------11-11-----
 e-10--8-11-10-------8--11-10-13-----8-10-8----------


Important: The song above is NOT stored on the Chordie server. The original song is hosted at www.guitartabs.cc. Chordie works as a search engine and provides on-the-fly formatting. Chordie does not index songs against artists'/composers' will. To remove this song please click here.

Text color:
Chord color:
Chord grids: 
Font size:    
Page size: 

A D E F#m
Rate #1 of 5 versions

Jango Player

Login - add to songbook

SHARE PAGE  




You need to log in to post comments