Guitar Tabs, Chords and Lyrics
Server problems seems to be fixed. Chordie has been experiencing problems with songs disappearing. These issues now seems to be fixed, but still verifying the fix. If you find anything strange, please email admin@chordie.com.


All the Best Cowboys Have Daddy Issues   Senses Fail

 
 E|-----------------------------------------------|
 B|-----------------------------------------------|
 G|-----------------------------------------------|
 D|----4------4---4-----4-----4------4---4-----4--|
 A|--2---2--2---2---2-2-----2---2--2---2---2-2----|
 D|-----------------------------------------------|

 


 PM- PM-


 


 

 
 E|-----------------------------------------------| E|-----------------------------------------------|
 B|-----------------------------------------------| B|---------------------0--------------------0----|
 G|---------------------4--------------------4----| Or G|-----------------------------------------------|
 D|----5------5---5-----------5------5---5-----5--| D|----5------5---5-----------5------5---5-----5--|
 A|--3---3--3---3---3-3-----3---3--3---3---3------| A|--3---3--3---3---3-3-----3---3--3---3---3------|
 D|-----------------------------------------------| D|-----------------------------------------------|

 


 PM- PM- PM PM-


 


 

 
 E|-----------------------------------------------|
 B|-----------------------------------------------|
 G|-----------------------------------------------|
 D|----4------4---4-----4-----4------4---4-----4--|
 A|--2---2--2---2---2-2-----2---2--2---2---2-2----|
 D|-----------------------------------------------|

 


 PM- PM-


 [PRE CBORUS] 


 


 Rhythm


 


 

 
 E|--------------------------------------|
 B|--------------------------------------|
 G|--55555-5555555555--77777-7777777777--|
 D|--55555-5555555555--77777-7777777777--|
 A|--33333-3333333333--55555-5555555555--|
 D|--------------------------------------|

 


 


 Lead


 


 

 
 E|--------------------------------------|
 B|--------------------------------------|
 G|--55545-5555554555--77757-7777775777--|
 D|--XXXXX-XXXXXXXXXX--XXXXX-XXXXXXXXXX--|
 A|--33323-3333332333--55535-5555553555--|
 D|--------------------------------------|

 


 


 [CBORUS] 


 


 Rhythm


 (Play this twice)


 

 
 E|----------------------------------------------------------------------|
 B|----------------------------------------------------------------------|
 G|----------------------------------------------------------------------|
 D|-2222222222222222-5555555555555555-0000000000000000-7777777777777777--|
 A|-2222222222222222-5555555555555555-0000000000000000-7777777777777777--|
 D|-2222222222222222-5555555555555555-0000000000000000-7777777777777777--|

 


 


 Lead


 [ Tab from: bttp://www.guitartabs.cc/tabs/s/senses_fail/all_tbe_best_cowboys_bave_daddy_issues_tab.btml ] 


 //The Chorus parts for the lead is a little hard to make out, if anyone has it


 share, if not I'll do my best to try and figure it out and post it post haste.//


 


 [VERSE] 


 


 Lead & Rhythm


 


 

 
 E|-----------------------------------------------|
 B|-----------------------------------------------|
 G|-----------------------------------------------|
 D|----4------4---4-----4-----4------4---4-----4--|
 A|--2---2--2---2---2-2-----2---2--2---2---2-2----|
 D|-----------------------------------------------|

 


 PM- PM-


 


 

 
 E|-----------------------------------------------| E|-----------------------------------------------|
 B|-----------------------------------------------| B|---------------------0--------------------0----|
 G|---------------------4--------------------4----| Or G|-----------------------------------------------|
 D|----5------5---5-----------5------5---5-----5--| D|----5------5---5-----------5------5---5-----5--|
 A|--3---3--3---3---3-3-----3---3--3---3---3------| A|--3---3--3---3---3-3-----3---3--3---3---3------|
 D|-----------------------------------------------| D|-----------------------------------------------|

 


 PM- PM- PM- PM-


 


 

 
 E|-----------------------------------------------|
 B|-----------------------------------------------|
 G|-----------------------------------------------|
 D|----4------4---4-----4-----4------4---4-----4--|
 A|--2---2--2---2---2-2-----2---2--2---2---2-2----|
 D|-----------------------------------------------|

 


 PM- PM-


 


 

 
 E|-----------------------------------------------| E|-----------------------------------------------|
 B|-----------------------------------------------| B|---------------------0--------------------0----|
 G|---------------------4--------------------4----| Or G|-----------------------------------------------|
 D|----5------5---5-----------5------5---5-----5--| D|----5------5---5-----------5------5---5-----5--|
 A|--3---3--3---3---3-3-----3---3--3---3---3------| A|--3---3--3---3---3-3-----3---3--3---3---3------|
 D|-----------------------------------------------| D|-----------------------------------------------|

 


 PM- PM- PM- PM-


 


 [PRE CBORUS] 


 Rhythm


 "I'm not waiting, I'm not Waiting!"


 

 
 E|-----------------------------------------------|
 B|-----------------------------------------------|
 G|-----------------------------------------------|
 D|--2--Hold--------------------------------------|
 A|--2--------------------------------------------|
 D|--2------------------22222222------------------|

 


 PM-----|


 


 [CBORUS] 


 


 Rhythm


 //Play this twice//


 

 
 E|----------------------------------------------------------------------|
 B|----------------------------------------------------------------------|
 G|----------------------------------------------------------------------|
 D|-2222222222222222-5555555555555555-0000000000000000-7777777777777777--|
 A|-2222222222222222-5555555555555555-0000000000000000-7777777777777777--|
 D|-2222222222222222-5555555555555555-0000000000000000-7777777777777777--|

 


 


 Lead


 


 [BRIDGE] 


 


 Lead & Rhythm


 


 

 
 E|-------------------------------------------------------------------------|
 B|-------------------------------------------------------------------------|
 G|--5555555555555555-7777777777777777--------------------------------------|
 D|--5555555555555555-7777777777777777---2--------5--------0--------7-------|
 A|--3333333333333333-5555555555555555---2--Hold--5--hold--0--hold--7-hold--|
 D|--------------------------------------2--------5--------0--------7-------|

 


 


 Rhythm


 


 

 
 E|--------------------------------------|
 B|--------------------------------------|
 G|--------------------------------------|
 D|--2--------5--------0--------7--------|
 A|--2--hold--5--hold--0--hold--7--hold--|
 D|--2--------5--------0--------7--------|


Important: The song above is NOT stored on the Chordie server. The original song is hosted at www.guitartabs.cc. Chordie works as a search engine and provides on-the-fly formatting. Chordie does not index songs against artists'/composers' will. To remove this song please click here.

This song is displayed as text-only. Transposing and tuning is only available for chordpro-songs.
Rate #1 of 2 versions

Login - add to songbook

SHARE PAGE  




You need to log in to post comments