Guitar Tabs, Chords and Lyrics
Server problems seems to be fixed. Chordie has been experiencing problems with songs disappearing. These issues now seems to be fixed, but still verifying the fix. If you find anything strange, please email admin@chordie.com.


Home in Despair   Sentenced

 
 -------------------------0----------------------------------------------------|
 --1--0-----------1h3p1-----3---1--0---------------1---------------------------|
 --0----0---------------0-------0----0-------------0-0-------------------------|
 --2------2h3p2-----------------2------2h3p2-------2-0-------------------------|
 --3------------3---------------3------------3-----3-2-------------------------|
 ----------------------------------------------------3-------------------------|

 


 Intro (Clean) Distortion


 


 

 
 --0----3----2-----------------------------------------------------------------|
 --0----3----3----1------------------------------------------------------------|
 --0----0----2----0------------------------------------------------------------|
 --2----0----0----2------------------------------------------------------------|
 --2----2---------3------------------------------------------------------------|
 --0----3----------------------------------------------------------------------|

 


 Main Riff / Chorus (Axe 1 - Clean, Strumming)


 


 

 
 ------------------------------------------------------------------------------|
 ------------------------------------------------------------------------------|
 -------------7----5-----------------------------------------------------------|
 --2----5-----7----5-----------------------------------------------------------|
 --2----5-----5----3-----------------------------------------------------------|
 --0----3----------------------------------------------------------------------|

 


 Main Riff / Chorus (Axe 2 - Distortion, Strumming)


 


 

 
 ------------------------------------------------------------------------------|
 --1-1-----1-------------------------------------------------------------------|
 --2-2--4--0-------------------------------------------------------------------|
 --2-2--4--2-------------------------------------------------------------------|
 --0-0--2--3-------------------------------------------------------------------|
 ------------------------------------------------------------------------------|

 


 Ending of Main Riff / Chorus (Axe 1)


 


 

 
 ------------------------------------------------------------------------------|
 ------------------------------------------------------------------------------|
 ----2-2--4--5-----------------------------------------------------------------|
 ----2-2--4--5-----------------------------------------------------------------|
 ----0-0--2--3-----------------------------------------------------------------|
 ------------------------------------------------------------------------------|

 


 Ending of Main Riff / Chorus (Axe 2)


 


 

 
 ------------------------------------------------------------------------------|
 -----10---7h8p7---------------------------------------------------------------|
 --/9----9-------9-7v-----7----------------------------------------------------|
 -----------------------7---7-9h10p9-7-9v--------------------------------------|
 ------------------------------------------------------------------------------|
 ------------------------------------------------------------------------------|

 


 Solo


 


 

 
 ------------------------------------------------------------------------------|
 ----10---7h8p7----------------------------------------------------------------|
 --9----7-------9-7v-----7-----------------------------------------------------|
 ----------------------7---7-9h10p9-7------------------------------------------|
 -------------------------------------10v--------------------------------------|
 ------------------------------------------------------------------------------|
 ------------------------------------------------------------------------------|
 -----10---7h8p7---------------------------------------------------------------|
 --/9----9-------9-7v-----7----------------------------------------------------|
 -----------------------7---7-9h10p9-7-------7---------------------------------|
 --------------------------------------10-10---10-7-9-10-----------------------|
 ------------------------------------------------------------------------------|
 ------------------------------------------------------------------------------|
 --0-----0-----3-----3-----0-----0-----3-----3---------------------------------|
 ----0-----0-----0-----0-----0-----0-----0-----0-------------------------------|
 ------2-----2-----0-----0-----2-----2-----0-----0-----------------------------|
 ------------------------------------------------------------------------------|
 ------------------------------------------------------------------------------|

 


 Verse (clean)


 


 

 
 ------------------------------------------------------------------------------|
 --0-----0-----3-----3-----1-----1-----1-----1---------------------------------|
 ----0-----0-----0-----0-----0-----0-----2-----2-------------------------------|
 ------2-----2-----0-----0-----2-----2-----2-----2-----------------------------|
 ------------------------------------------------------------------------------|
 ------------------------------------------------------------------------------|
 ------------------------------------------------------------------------------|
 --0-----0-----3-----3-----1-----1------1----1-1-------------------------------|
 ----0-----0-----0-----0-----0-----0----2----2-2-------------------------------|
 ------2-----2-----0-----0-----2-----2--2----2-2-------------------------------|
 ---------------------------------------0----0-0-------------------------------|
 ------------------------------------------------------------------------------|

 


 . .


 


 

 
 --0--0-------3-------------------------------------0-------3------------------|
 --0--0----3--3-------1-1---1-----1-----------------0----3--3------------------|
 --0--0----2--0-------0-0---0-----2-----------------0----2--0------------------|
 --2--2----0--0-------2-2---2-----2-----------------2----0--0------------------|
 --2--2----0--2-------3-3---3-----0-----------------2----0--2------------------|
 --0--0----2--3------------------------------0-0----0----2--3------------------|

 


 Prechorus (Axe 1, Clean) # . .


 


 

 
 ------------------------------------------------------------------------------|
 --1-1---1--1-----------1------------------------------------------------------|
 --0-0---0--2--------4--0------------------------------------------------------|
 --2-2---2--2--------4--2------------------------------------------------------|
 --3-3---3--0--------2--3------------------------------------------------------|
 ------------------------------------------------------------------------------|

 


 [#] [#]  


 

 
 ------------------------------------------------------------------------------|
 ------------------------------------------------------------------------------|
 ---------------------5-5---5-----2------2-2-----------------------------------|
 --2-2--4-5-----------5-5---5-----2------2-2------2--4-5-----------------------|
 --2-2--4-5-----------3-3---3-----0------0-0------2--4-5-----------------------|
 --0-0--2-3-----------------------------------0-0-0--2-3-----------------------|

 


 Prechorus (Axe 2, Distorted) . .


 


 

 
 ------------------------------------------------------------------------------|
 ------------------------------------------------------------------------------|
 --5-5---5-----2-------4--5----------------------------------------------------|
 --5-5---5-----2-------4--5----------------------------------------------------|
 --3-3---3-----0-------2--3----------------------------------------------------|
 ------------------------------------------------------------------------------|
 ----------------------------------------------------------12^-----------------|
 ------12^---------12^-----12^-----12^---------12^-----------------------------|
 ----------12^---------12^-------------12^---------12^-------------------------|
 --12^---------12^-------------12^---------12^---------12^---------------------|
 ------------------------------------------------------------------------------|
 ------------------------------------------------------------------------------|


Important: The song above is NOT stored on the Chordie server. The original song is hosted at www.guitartabs.cc. Chordie works as a search engine and provides on-the-fly formatting. Chordie does not index songs against artists'/composers' will. To remove this song please click here.

This song is displayed as text-only. Transposing and tuning is only available for chordpro-songs.
Rate #1 of 3 versions

Login - add to songbook

SHARE PAGE  




You need to log in to post comments