Guitar Tabs, Chords and Lyrics
Major upgrade!! After one year development the new version of Chordie is now online! Please give feedback.


Nomad  Sepultura

As recorded by Sepultura
(From the 1993 Album CHAOS A.D)
Transcribed by Doetje2
Words by Andreas Kisser Music by Max Cavalera, Andreas Kisser, Igor Cavalera ,
Paulo Xisto Pinto Junior
Gtr I (D G C F A D) - 'Untitled'
Gtr II (D G C F A D) - 'Untitled'
Gtr III (D G C F A D) - 'Untitled'
Intro
Moderately Q=76 F
[4/4] Gtr I
\6 \6
Q. +S +S Q. +S +S
 
 ||-----------------------------||-|
 ||o---------------------------o||-|
 ||--0----(0)-(0)-0----(0)-(0)--||-|
 ||-----------------------------||-|
 ||o---------------------------o||-|
 ||-----------------------------||-|

|
| Gtr II
| W
 
 ||-----------------------------||-|
 ||o---------------------------o||-|
 ||-----------------------------||-|
 ||-----------------------------||-|
 ||o---------------------------o||-|
 ||-----------------------------||-|

aster Q=86 Slower Q=76
[F#5] \6 \6 [F#5] \6 \6
Q. +S +S Q. +S +S 4x Q. +S +S Q. +S +S
 
 ||-----------------------------||----------------------------||
 ||o---------------------------o||----------------------------||
 ||--0----(0)-(0)-0----(0)-(0)--||-0----(0)-(0)-0----(0)-(0)--||
 ||-----------------------------||----------------------------||
 ||o---------------------------o||----------------------------||
 ||-----------------------------||----------------------------||

|
| H H 4x W
 
 ||-----------------------------||----------------------------||
 ||o---------------------------o||----------------------------||
 ||-----------------------------||----------------------------||
 ||-----------------------------||----------------------------||
 ||o-4------------4------------o||----------------------------||
 ||--2------------2-------------||----------------------------||

F#5N.C. F#5N.C. F#5 N.C5 F#5 N.C5 F#5 N.C5 F#5 N.C.
Gtrs I, II
 
 ~~ ~~ PM------| PM------| PM------| PM----| ~

Q S E. Q S E. 4x S S S S S E. S S S S S E. S S S S S E. S S S S Q
 
 ||-------------------||---------------------------|--------------------------|
 ||o-----------------o||---------------------------|--------------------------|
 ||-------------------||-----------5------------5--|-----------5--------------|
 ||-----2-------2-----||---------2-5----------2-5--|---------2-5--------------|
 ||o-4----3--4----3--o||-4-4-4-4---3--4-4-4-4---3--|-4-4-4-4---3--4-4---------|
 ||--2-------2--------||-2-2-2-2------2-2-2-2------|-2-2-2-2------2-2-0-2-3---|

F#5 N.C5 F#5 N.C5 F#5 N.C5 F#5 N.C.
Gtr I
 
 PM------| PM------| PM------| PM----| ~

S S S S S E. S S S S S E. S S S S S E. S S S S Q
 
 |---------------------------|-------------------------|
 |---------------------------|-------------------------|
 |-----------5------------5--|-----------5-------------|
 |---------2-5----------2-5--|---------2-5-------------|
 |-4-4-4-4---3--4-4-4-4---3--|-4-4-4-4---3--4-4--------|
 |-2-2-2-2------2-2-2-2------|-2-2-2-2------2-2-0-2-3--|

|
| Gtr II
 
 | PM------| PM------| PM------| PM----| ~

| S S S S S E. S S S S S E. S S S S S E. S S S S Q
 
 |---------------------------|-------------------------|
 |---------------------------|-------------------------|
 |-----------5------------5--|-----------5-------------|
 |---------2-5----------2-5--|---------2-5-------------|
 |-4-4-4-4---3--4-4-4-4---3--|-4-4-4-4---3--4-4--------|
 |-2-2-2-2------2-2-2-2------|-2-2-2-2------2-2-0-2-3--|

|
| Gtr III
| W W
 
 |---------------------------|-------------------------|
 |---------------------------|-------------------------|
 |---------------------------|-------------------------|
 |---------------------------|-------------------------|
 |---------------------------|-------------------------|
 |---------------------------|-------------------------|

[E5]E. [Bb5] S +H.
 
 |-----------------------------||
 |-----------------------------||
 |-----------------------------||
 |-----3-----(3)---------------||
 |-2---1-----(1)---------------||
 |-0---------------------------||

|
| E. S +Q +Q. +E
 
 |-----------------------------||
 |----11----(11)--(11)---(11)\-||
 |----13b15-(13)--(13)---(13)\-||
 |-----------------------------||
 |-----------------------------||
 |-----------------------------||

|
| E. S +Q +Q. +E
 
 |-----------------------------||
 |----12----(12)--(12)---(12)\-||
 |----14b15-(14)--(14)---(14)\-||
 |-----------------------------||
 |-----------------------------||
 |-----------------------------||

Verse
[E5]Gtrs I, II
 
 PM------------------------------------------|

S S E E S S E E S S E S S E E S S E E S S E
 
 ||------------------------|------------------------||
 ||o-----------------------|-----------------------o||
 ||------------------------|------------------------||
 ||------------------------|------------------------||
 ||o-2-2-2-2-2-2-2-2-2-2-2-|-2-2-2-2-2-2-2-2-2-2-2-o||
 ||--0-0-0-0-0-0-0-0-0-0-0-|-0-0-0-0-0-0-0-0-0-0-0--||

F#5 N.C5 F#5 N.C5 F#5 N.C5 F#5 N.C.
 
 PM------| PM------| PM------| PM----| ~

S S S S S E. S S S S S E. S S S S S E. S S S S Q
 
 |---------------------------|-------------------------|
 |---------------------------|-------------------------|
 |-----------5------------5--|-----------5-------------|
 |---------2-5----------2-5--|---------2-5-------------|
 |-4-4-4-4---3--4-4-4-4---3--|-4-4-4-4---3--4-4--------|
 |-2-2-2-2------2-2-2-2------|-2-2-2-2------2-2-0-2-3--|

F#5 N.C5 F#5 N.C5 F#5 N.C5 F#5 N.C.
Gtr I
 
 PM------| PM------| PM------| PM----| ~

S S S S S E. S S S S S E. S S S S S E. S S S S Q
 
 |---------------------------|-------------------------|
 |---------------------------|-------------------------|
 |-----------5------------5--|-----------5-------------|
 |---------2-5----------2-5--|---------2-5-------------|
 |-4-4-4-4---3--4-4-4-4---3--|-4-4-4-4---3--4-4--------|
 |-2-2-2-2------2-2-2-2------|-2-2-2-2------2-2-0-2-3--|

|
| Gtr II
 
 | PM------| PM------| PM------| PM----| ~

| S S S S S E. S S S S S E. S S S S S E. S S S S Q
 
 |---------------------------|-------------------------|
 |---------------------------|-------------------------|
 |-----------5------------5--|-----------5-------------|
 |---------2-5----------2-5--|---------2-5-------------|
 |-4-4-4-4---3--4-4-4-4---3--|-4-4-4-4---3--4-4--------|
 |-2-2-2-2------2-2-2-2------|-2-2-2-2------2-2-0-2-3--|

|
| Gtr III
| W W
 
 |---------------------------|-------------------------|
 |---------------------------|-------------------------|
 |---------------------------|-------------------------|
 |---------------------------|-------------------------|
 |---------------------------|-------------------------|
 |---------------------------|-------------------------|

[E5]E. [Bb5] S +H.
 
 |---------------------------------------||
 |---------------------------------------||
 |---------------------------------------||
 |-----3------(3)------------------------||
 |-2---1------(1)------------------------||
 |-0-------------------------------------||

|
| E. S +Q +Q. +E
 
 |---------------------------------------||
 |----11-----(11)--(11)-----------(11)\--||
 |----13b15--(13)--(13)-----------(13)\--||
 |---------------------------------------||
 |---------------------------------------||
 |---------------------------------------||

|
| E. S +Q +E. +S +E +E
 
 |---------------------------------------||
 |----12-----(12)--(12)-(12)-(12)-(12)\--||
 |----14b15==(14)--(14)-(14)-(14)-(14)r\-||
 |---------------------------------------||
 |---------------------------------------||
 |---------------------------------------||

Verse
[E5]Gtrs I, II
 
 PM------------------------------------------|

S S E E S S E E S S E S S E E S S E E S S E
 
 ||------------------------|------------------------||
 ||o-----------------------|-----------------------o||
 ||------------------------|------------------------||
 ||------------------------|------------------------||
 ||o-2-2-2-2-2-2-2-2-2-2-2-|-2-2-2-2-2-2-2-2-2-2-2-o||
 ||--0-0-0-0-0-0-0-0-0-0-0-|-0-0-0-0-0-0-0-0-0-0-0--||

Chorus
[E#E5]S S E E [E#E5]S S S S [E#E5G#5]S S Q
 
 ||--------------------------|
 ||o-------------------------|
 ||--------------------------|
 ||--------------------------|
 ||o-3-2-----3-2---2-3-2-/6--|
 ||--1-0-----1-0---0-1-0-/4--|

[E#E5]S S E E [E#E5]S S S S [E#E5G#5]S S Q [E#E5]S E. +Q [E#E5]S E. +Q
 
 |--------------------------||----------------------||
 |-------------------------o||----------------------||
 |--------------------------||----------------------||
 |--------------------------||----------------------||
 |-3-2-----3-2---2-3-2-/6--o||-3-2--(2)--3-2--(2)---||
 |-1-0-----1-0---0-1-0-/4---||-1-0--(0)--1-0--(0)---||

E#E5 N.C. E#E5 N.C. E#E5 E#E5
Gtr I
S E. E. +S S E. E. +S 4x S E. +Q S E. +Q
 
 ||---------------------------------||---------------------|
 ||o-------8---(8)\-------8---(8)\-o||---------------------|
 ||-------10--(10)\------10--(10)\--||---------------------|
 ||---------------------------------||---------------------|
 ||o-------------------------------o||-3-2--(2)--3-2--(2)--|
 ||--1p0------------1p0-------------||-1-0--(0)--1-0--(0)--|

|
| Gtr II
| S E. E. +S S E. E. +S 4x S E. +Q S E. +Q
 
 ||---------------------------------||---------------------|
 ||o-------------------------------o||---------------------|
 ||---------------------------------||---------------------|
 ||---------------------------------||---------------------|
 ||o-3-2---8---(8)\-3-2---8---(8)\-o||-3-2--(2)--3-2--(2)--|
 ||--1-0------------1-0-------------||-1-0--(0)--1-0--(0)--|

E#E5 N.C. E#E5 N.C. E#E5 N.C. E#E5 N.C.
S E. S. T +S S S E. S. T +S S S E. S. T +S S S E. S. T +S S
 
 |---------------------------------|---------------------------------||
 |---------------------------------|---------------------------------||
 |---------------------------------|---------------------------------||
 |---------------------------------|---------------------------------||
 |------8--8-(8)-8------8--8-(8)-8-|------8--8-(8)-8------8--8-(8)-8-||
 |-1p0-------------1p0-------------|-1p0-------------1p0-------------||

|
| S E. S. T +S S S E. S. T +S S S E. S. T +S S S E. S. T +S S
 
 |---------------------------------|---------------------------------||
 |---------------------------------|---------------------------------||
 |---------------------------------|---------------------------------||
 |---------------------------------|---------------------------------||
 |-3-2--8--8-(8)-8-3-2--8--8-(8)-8-|-3-2--8--8-(8)-8-3-2--8--8-(8)-8-||
 |-1-0-------------1-0-------------|-1-0-------------1-0-------------||

Q.=152
N.C. D#5 N.C. D#5 N.C. D#5 E5
12/8
Gtrs I, II
 
 PM--| PM--| PM--|

E E E Q. E E E Q. E E E Q. Q. Q.
 
 |-----------------------|----------------------|
 |-----------------------|----------------------|
 |-----------------------|----------------------|
 |-------8----------8----|-------8----9----9----|
 |-------6----------6----|-------6----7----7----|
 |-0-0-0------0-0-0------|-0-0-0----------------|

N.C. D#5/BN.C. D#5 N.C. D#5/BG5
 
 PM--| PM--| PM--|

E E E Q. E E E Q. E E E Q. Q. Q.
 
 |-----------------------|-----------------------||
 |-----------------------|-----------------------||
 |-----------------------|-----------------------||
 |-------8----------8----|-------8---------------||
 |-------6----------6----|-------6----5----5-----||
 |-0-0-0-6----0-0-0-6----|-0-0-0-6----3----3-----||

N.C. D#5 N.C. D#5 N.C. D#5 E5
 
 PM--| PM--| PM--|

E E E Q. E E E Q. E E E Q. Q. Q.
 
 ||------------------------|----------------------|
 ||o-----------------------|----------------------|
 ||------------------------|----------------------|
 ||--------8----------8----|-------8----9----9----|
 ||o-------6----------6----|-------6----7----7----|
 ||--0-0-0------0-0-0------|-0-0-0----------------|

N.C. D#5 N.D#5 N.C. D#5 E5
 
 PM--| PM--| PM--|

E E E Q. E E E Q. E E E Q. Q. Q.
 
 |-----------------------|-----------------------||
 |-----------------------|-----------------------||
 |-----------------------|-----------------------||
 |-------8----------8----|-------8----9----9-----||
 |-------6----------6----|-------6----7----7-----||
 |-0-0-0------0-0-0------|-0-0-0-----------------||

N.C. D#5/BN.C. D#5/Bb N.C. D#5/BG5
 
 PM--| PM--| PM--|

E E E Q. E E E Q. E E E Q. Q E +E Q
 
 |-----------------------|------------------------|
 |-----------------------|------------------------|
 |-----------------------|------------------------|
 |-------8----------8----|-------8----------------|
 |-------6----------6----|-------6----5--5-(5)-5--|
 |-0-0-0-6----0-0-0-6----|-0-0-0-6----3--3-(3)-3--|

N.C. D#5/BN.C. N.C. D#5/BG5
 
 PM--| PM--| PM--|

E E E Q. E E E Q. E E E Q. Q E +E Q
 
 |-----------------------|---------------------------||
 |-----------------------|--------------------------o||
 |-----------------------|---------------------------||
 |-------8----------8----|-------8-------------------||
 |-------6----------6----|-------6----5--5-(5)-5----o||
 |-0-0-0-6----0-0-0-6----|-0-0-0-6----3--3-(3)-3-----||

N.C.
Gtr I
 
 PM---------------------------

E E E E E E E E E E E E 4x
 
 ||---------------------------||-|
 ||o-------------------------o||-|
 ||---------------------------||-|
 ||---------------------------||-|
 ||o-------------------------o||-|
 ||--0-0-0-0-----0-0-0-1-1-5--||-|

N.C. N.C.
Gtrs I, II
 
 -----------------------------------------------------|

E E E E E E E E E E E E 3x E E E E E E E E E E E E
 
 ||---------------------------||--------------------------|
 ||o-------------------------o||--------------------------|
 ||---------------------------||--------------------------|
 ||---------------------------||--------------------------|
 ||o-------------------------o||--------------------------|
 ||--0-0-0-0-----0-0-0-1-1-5--||-0-0-0-0-----0-0-0-1-5-0--|

[F#5] [F5]  
 
 PM-------------------------

E Q Q. E Q Q. E E E E E E E E E E E E 9x
 
 |---------------------||---------------------------||
 |---------------------||o-------------------------o||
 |---------------------||---------------------------||
 |---------------------||---------------------------||
 |---4--4------3--3----||o-------------------------o||
 |-2-2--2----1-1--1----||--0-0-0-0-----0-0-0-1-1-5--||
 -------|

E E E E E E H. Wx2
 
 |---------------------|--------||
 |---------------------|--------||
 |---------------------|--------||
 |---------------------|--------||
 |---------------------|--------||
 |-0-0-0-0-------------|--------||

Slower Q.=86
[E5]  
[4/4]  
 
 PM------------------------------------------|

W S S E E S S E E S S E S S E E S S E E S S E
 
 |----------||-----------------------|-----------------------|
 |----------||-----------------------|-----------------------|
 |----------||-----------------------|-----------------------|
 |----------||-----------------------|-----------------------|
 |----------||-2-2-2-2-2-2-2-2-2-2-2-|-2-2-2-2-2-2-2-2-2-2-2-|
 |----------||-0-0-0-0-0-0-0-0-0-0-0-|-0-0-0-0-0-0-0-0-0-0-0-|

( Tab from: http://www.guitartabs.cc/tabs/s/sepultura/nomad_tab.html )
 
 PM------------------------------------------|

S S E E S S E E S S E S S E E S S E E S S E
 
 |-----------------------|------------------------|
 |-----------------------|------------------------|
 |-----------------------|------------------------|
 |-----------------------|------------------------|
 |-2-2-2-2-2-2-2-2-2-2-2-|-2-2-2-2-2-2-2-2-2-2-2--|
 |-0-0-0-0-0-0-0-0-0-0-0-|-0-0-0-0-0-0-0-0-0-0-0--|

|
| Gtr III
| W H Q E E
 
 |-----------------------|------------------------|
 |-----------------------|------------------------|
 |-----------------------|---------------------4/-|
 |-----------------------|------------------------|
 |-----------------------|---------------------2/-|
 |-----------------------|------------------------|

[E5]Gtr [F5]III
~~~~
E. S +H E E E. S +Q +Q. +E
 
 |---------------------|---------------------------||
 |---------------------|---------------------------||
 |-/9--10-(10)---------|-13--14-(14)--(14)---(14)\-||
 |---------------------|---------------------------||
 |-/7---8--(8)------8/-|-11--12-(12)--(12)---(12)\-||
 |---------------------|---------------------------||

|
| Gtr I
| E. S +H. E. S +H.
 
 |---------------------|---------------------------||
 |---------------------|---------------------------||
 |---------------------|---------------------------||
 |---------------------|---------------------------||
 |--2---3--(3)---------|--6---7--(7)---------------||
 |--0---1--(1)---------|--4---5--(5)---------------||

|
| Gtr II
| E. S +H. W
 
 |---------------------|---------------------------||
 |------8--(8)---------|---------------------------||
 |-----10-(10)---------|---------------------------||
 |---------------------|---------------------------||
 |---------------------|---------------------------||
 |---------------------|---------------------------||

Guitar Solo
C5 F#5 C5 F#5 N.C.
TP TP TP TP TP
Q. E +E E E. +S
 
 |---------------------------------------|
 |---------------------------------------|
 |-/11--------/12-(12)-/11-/12-----(12)\-|
 |---------------------------------------|
 |--/9--------/10-(10)--/9-/10-----(10)\-|
 |---------------------------------------|

|
| Gtrs I, II
| E E S S E E E S S S S
 
 |---------------------------------------|
 |---------------------------------------|
 |---------------------------------------|
 |---5----------5------------------------|
 |---3--4-4-4---3---4----4---3p2---------|
 |------2-2-2-------2----2-------3p==0---|

|
| W
 
 |---------------------------------------|
 |---------------------------------------|
 |---------------------------------------|
 |---------------------------------------|
 |---------------------------------------|
 |---------------------------------------|

C5 F#5 C5 F#5 N.C. C5 F#5 C5 F#5 N.C.
TPTP TP TP
 
 |-3-| |-3-| |-3-|

E Q E Q. S S S S S S S S S S S T T T S S T T T S T T T S
 
 |-------------------------0-0-|---------------------------------------------|
 |-------------------------0-0-|-4-4-4-4-4-4-4-4-----------------------------|
 |-/11-9-----/12-11------------|-4-4-4-4-4-4-4-4-5-4h5p4s2-4-2h4p2-----------|
 |-----------------------------|-----------------------------------4-2h4p2-1-|
 |--/9-7-----/10--9------------|---------------------------------------------|
 |-----------------------------|---------------------------------------------|

|
| E E S S E E E S S S S E E S S E E E S S S S
 
 |-----------------------------|---------------------------------------------|
 |-----------------------------|---------------------------------------------|
 |-----------------------------|---------------------------------------------|
 |---5---------5---------------|-5-----------5-------------------------------|
 |---3-4-4-4---3--4--4-3p2-----|-3---4---4-4-3---4-------4---3p====2---------|
 |-----2-2-2------2--2-----3p0-|-----2---2-2-----2-------2-----------3p====0-|

C5 F#5 C5 F#5 N.C.
Gtr III
~~
 
 |-3-| |-3-| |-3-|

S T T T S S S S S S S S S T T T S E. S
 
 |-------------------------------------------|
 |-------------------------------------------|
 |-----------------------------------------2s|
 |-2-1h2p1-----------------------------------|
 |---------3-2-0-2-3p2p0---------------------|
 |-----------------------2-3-2h3p2p0-2-------|

|
| Gtr II
| ~~
 
 | |-3-| |-3-| |-3-|

| S T T T S S S S S S S S S T T T S E. S
 
 |-------------------------------------------|
 |-------------------------------------------|
 |-----------------------------------------2s|
 |-2-1h2p1-----------------------------------|
 |---------3-2-0-2-3p2p0---------------------|
 |-----------------------2-3-2h3p2p0-2-------|

|
| Gtr I
| E E S S E E E S S S S
 
 |-------------------------------------------|
 |-------------------------------------------|
 |-------------------------------------------|
 |-5---------------5-------------------------|
 |-3-------4---4-4-3-----4---4-------3p2-----|
 |---------2---2-2-------2---2-----------3p0-|

C5 F#5 C5 F#5 N.C.
E T T S S S S S T S. T T S S S S S
 
 |-------------------------------------------------|
 |-------------------------------------------------|
 |-16-15h16p15-11h12-9h11--------------------------|
 |------------------------9h11--9h11p9---8h=9------|
 |--------------------------------------------9h10-|
 |-------------------------------------------------|

|
| E T T S S S S S T S. T T T T S S S S
 
 |-------------------------------------------------|
 |-------------------------------------------------|
 |-12-11h12p11--9h11-------------------------------|
 |-------------------9h11-8h=9--8h=9p8h9-----------|
 |---------------------------------------9h10-7h=9-|
 |-------------------------------------------------|

|
 
 | PM---------| PM----|

| E E S S E E E S S S S
 
 |-------------------------------------------------|
 |-------------------------------------------------|
 |-------------------------------------------------|
 |--5----------------5-----------------------------|
 |--3--4--------4--4-3----4-----4--------3p=2------|
 |-----2--------2--2------2-----2-------------3p=0-|

C5 F#5 C5 F#5 N.C.
 
 |-3-| |-3-| |-3-|

T S. S S S S S S S S T S. T T T S a S T T E
 
 |-----------------------------------------------|
 |-----------------------------------------------|
 |-----------------------------------------------|
 |-----------------------------------------------|
 |-----------------------------------------------|
 |-6h7--6h7p6-0h2-3p2p0-0h3--2h3p2p0-2h3p2h3p2---|

|
 
 | |-3-| |-3-| |-3-|

| T S. S S S S S S S S T S. T T T S a S T T E
 
 |-----------------------------------------------|
 |-----------------------------------------------|
 |-----------------------------------------------|
 |-----------------------------------------------|
 |-----------------------------------------------|
 |-6h7--6h7p6-0h2-3p2p0-0h3--2h3p2p0-2h3p2h3p2---|

|
 
 | PM------| PM---|

| E E S S E E E S S S S
 
 |-----------------------------------------------|
 |-----------------------------------------------|
 |-----------------------------------------------|
 |-5--------------5------------------------------|
 |-3----4-----4-4-3-----4----4---------3p2-------|
 |------2-----2-2-------2----2---------------3p0-|

C5 F#5 C5 F#5 N.C.
|--3--|
E T T S S S S S E T T T T T S. T S S
 
 |------------------------------------------------------------|
 |-/12-11h12p11-------11h12-/17-15h17p15s14-14-15s==19--------|
 |--------------11h12----------------------------------19s16--|
 |------------------------------------------------------------|
 |------------------------------------------------------------|
 |------------------------------------------------------------|

|
| |--3--|
| E T T S S S S S E T T T S E S S
 
 |------------------------------------------------------------|
 |-----------------------11-----------------------------------|
 |-/12-11h12p11--9h11-12----/18-16h18p16s15----16------16s12--|
 |------------------------------------------------------------|
 |------------------------------------------------------------|
 |------------------------------------------------------------|

|
 
 | PM---------| PM|

| E E S S E E E S S S S
 
 |------------------------------------------------------------|
 |------------------------------------------------------------|
 |------------------------------------------------------------|
 |---5-----------------5--------------------------------------|
 |---3--4--------4--4--3------4--4--------------3p2-----------|
 |------2--------2--2---------2--2----------------------3p=0--|

C5 F#5 C5 F#5 N.C.
|--3--|
a S T T T S S S S S S S S S S S S T T S
 
 |-17s18-15h19p15----------------------------------------|
 |----------------17-14----------------------------------|
 |----------------------15-12----------------------------|
 |----------------------------14S11----------------------|
 |----------------------------------13-10----------------|
 |----------------------------------------12-9S3-2-3p2p0-|

|
| |--3--|
| a S T T T S S S S S S S S S S S S T T S
 
 |-12s15-12h15p12----------------------------------------|
 |----------------14-11----------------------------------|
 |----------------------12S=9----------------------------|
 |----------------------------11--8----------------------|
 |----------------------------------10--7----------------|
 |-----------------------------------------9-6S3-2-3p2p0-|

|
 
 | PM------| PM---|

| E E S S E E E S S S S
 
 |-------------------------------------------------------|
 |-------------------------------------------------------|
 |-------------------------------------------------------|
 |-----5-----------------------5-------------------------|
 |-----3-----------4-----4--4--3-----4-----4---3p2-------|
 |-----------------2-----2--2--------2-----2-------3p==0-|

[E5]Gtr[E#5]s I, II
E. S +H +S S E
 
 |------------------------||
 |------------------------||
 |------------------------||
 |------------------------||
 |-2--3-(3)----(3)--------||
 |-0--1-(1)----(1)-1s13\--||

|
| W
 
 |------------------------||
 |------------------------||
 |------------------------||
 |------------------------||
 |------------------------||
 |------------------------||

|
| W
 
 |------------------------||
 |------------------------||
 |------------------------||
 |------------------------||
 |------------------------||
 |------------------------||

Verse
[E5]Gtrs I, II
 
 PM------------------------------------------|

S S E E S S E E S S E S S E E S S E E S S E
 
 ||------------------------|------------------------||
 ||o-----------------------|-----------------------o||
 ||------------------------|------------------------||
 ||------------------------|------------------------||
 ||o-2-2-2-2-2-2-2-2-2-2-2-|-2-2-2-2-2-2-2-2-2-2-2-o||
 ||--0-0-0-0-0-0-0-0-0-0-0-|-0-0-0-0-0-0-0-0-0-0-0--||

Chorus
[E#E5]S S E E [E#E5]S S S S [E#E5G#5]S S Q [E#E5]S S E E [E#E5]S S S S [E#E5G#5]S S Q
 
 ||--------------------------|--------------------------||
 ||o-------------------------|-------------------------o||
 ||--------------------------|--------------------------||
 ||--------------------------|--------------------------||
 ||o-3-2-----3-2---2-3-2-/6--|-3-2-----3-2---2-3-2-/6--o||
 ||--1-0-----1-0---0-1-0-/4--|-1-0-----1-0---0-1-0-/4---||

[E#E5]S E. +E [E#E5]S S +S S [E#E5G#5]S S Q [E#E5]S E. +E [E#E5]S S +S S [E#E5G#5]S S Q
 
 ||-----------------------------|-----------------------------||
 ||o----------------------------|----------------------------o||
 ||-----------------------------|-----------------------------||
 ||-----------------------------|-----------------------------||
 ||o-3-2--(2)-3-2-(2)-2-3-2-/6--|-3-2--(2)-3-2-(2)-2-3-2-/6--o||
 ||--1-0--(0)-1-0-(0)-0-1-0-/4--|-1-0--(0)-1-0-(0)-0-1-0-/4---||

N.C. F5E5G#5
Gtr I
 
 PM------------------------------------|

T T T T T T T T T T T T T T T T T T T T S S Q 4x
 
 ||---------------------------------------------------||
 ||o-------------------------------------------------o||
 ||---------------------------------------------------||
 ||---------------------------------------------------||
 ||o-----------------------------------------3-2-/6--o||
 ||--0-0-0-0-0-0-0-0-0-0-0-0-0-0-0-0-0-0-0-0-1-0-/4---||

|
| Gtr II
 
 | PM------------------------------------|

| T T T T T T T T T T T T T T T T T T T T S S Q 4x
 
 ||---------------------------------------------------||
 ||o-------------------------------------------------o||
 ||---------------------------------------------------||
 ||---------------------------------------------------||
 ||o-----------------------------------------3-2-/6--o||
 ||--0-0-0-0-0-0-0-0-0-0-0-0-0-0-0-0-0-0-0-0-1-0-/4---||

F#5 N.C. F#5 N.C.
 
 PM----------------| PM----------------|

Q T T T T T T T T Q T T T T T T T T 3x
 
 |-||---------------------------------------------------||
 |-||o-------------------------------------------------o||
 |-||---------------------------------------------------||
 |-||---------------------------------------------------||
 |-||o-4-----------------------4-----------------------o||
 |-||--2---3-3-3-3--3--3--3--3-2---3-3-3-3--3--3--3--3--||

|
| \6 \6
| Q. +S +S Q. +S +S 3x
 
 |-||---------------------------------------------------||
 |-||o-------------------------------------------------o||
 |-||--0-----------(0)---(0)---0-----------(0)---(0)----||
 |-||---------------------------------------------------||
 |-||o-------------------------------------------------o||
 |-||---------------------------------------------------||

F#5 N.C. F#5N.C.
 
 PM----------------| PM---------------

Q T T T T T T T T Q T T T T T T T T
 
 |--------------------------------------------|
 |--------------------------------------------|
 |--------------------------------------------|
 |--------------------------------------------|
 |-4-----------------------4------------------|
 |-2---3-3-3-3--3--3--3--3-2--3-3-3-3-3-3-3-3-|

|
| \6
| Q. +S +S H
 
 |--------------------------------------------|
 |--------------------------------------------|
 |-0-----------(0)---(0)---0------------------|
 |--------------------------------------------|
 |--------------------------------------------|
 |--------------------------------------------|

[F#5]  
 
 ---------------------------------------------------------------|

T T T T T T T T T T T T T T T T T T T T T T T T T T T T T T T T Q Q H
 
 |-----------------------------------------------------------------|------------*|
 |-----------------------------------------------------------------|------------*|
 |-----------------------------------------------------------------|------------*|
 |-----------------------------------------------------------------|------------*|
 |-----------------------------------------------------------------|-4----------*|
 |-3-3-3-3-3-3-3-3-3-3-3-3-3-3-3-3-3-3-3-3-3-3-3-3-3-3-3-3-3-3-3-3-|-2----------*|

|
 
 | PM------------------------------------------------------------|

| T T T T T T T T T T T T T T T T T T T T T T T T T T T T T T T T Q Q H
 
 |-----------------------------------------------------------------|------------*|
 |-----------------------------------------------------------------|------------*|
 |-----------------------------------------------------------------|------------*|
 |-----------------------------------------------------------------|------------*|
 |-----------------------------------------------------------------|-4----------*|
 |-3-3-3-3-3-3-3-3-3-3-3-3-3-3-3-3-3-3-3-3-3-3-3-3-3-3-3-3-3-3-3-3-|-2----------*|

Duration Legend
 
 ---------------
 W - whole; H - half; Q - quarter; E - 8th; S - 16th; T - 32nd; X - 64th; a - acciaccatura

+ - note tied to previous; . - note dotted; .. - note double dotted
Uncapitalized letters represent notes that are staccato (1/2 duration)
Irregular groupings are notated above the duration line
Duration letters will always appear directly above the note/fret number it represents the
duration for. Duration letters with no fret number below them represent rests. Multi-
bar rests are notated in the form Wxn, where n is the number of bars to rest for. Low
melody durations appear below the staff
Tablature Legend
 
 ----------------

h - hammer-on
p - pull-off
b - bend
pb - pre-bend
r - bend release (if no number after the r, then release immediately)
/\ - slide into or out of (from/to "nowhere")
s - legato slide
S - shift slide
- natural harmonic
(n) - artificial harmonic
n(n) - tapped harmonic
~ - vibrato
tr - trill
T - tap
TP - trem. picking
PM - palm muting
\n/ - tremolo bar dip; n = amount to dip
\n - tremolo bar down
n/ - tremolo bar up
/n\ - tremolo bar inverted dip
= - hold bend; also acts as connecting device for hammers/pulls
- volume swell (louder/softer)
x - on rhythm slash represents muted slash
o - on rhythm slash represents single note slash
Misc Legend
 
 -----------

| - bar
|| - double bar
||o - repeat start
o|| - repeat end
*| - double bar (ending)
: - bar (freetime)
$ - Segno
& - Coda
Tempo markers - = BPM(8/16=s8/s16), where s8 = swing 8ths, s16 = swing 16ths

Important: The song above is NOT stored on the Chordie server. The original song is hosted at www.guitartabs.cc. Chordie works as a search engine and provides on-the-fly formatting. Chordie does not index songs against artists'/composers' will. To remove this song please click here.

Text color:
Chord color:
Chord grids: 
Font size:    
Page size: 

Bb5 E5 F#5 F5
Rate #1 of 2 versions

Jango Player

Login - add to songbook

SHARE PAGE  




You need to log in to post comments