Guitar Tabs, Chords and Lyrics
Major upgrade!! After one year development the new version of Chordie is now online! Please give feedback.


Cool Off   Session Road

 
 e---------------------------------------------------------------|
 B---------------------------------------------------------------|
 G--4444--7777--5555--3333--9999---3333--5555--7777--4444--------|
 D--4444--8888--6666--4444--9999---4444--6666--8888--4444--------|
 A--2222--8888--6666--4444--7777---4444--6666--8888--2222--------|
 E--------6666--4444--2222---------2222--4444--6666--------------|

 


 


 


 attention PALM MUTE ka dito!


 


 

 
 e------------------------------------------------------------------------|
 B------------------------------------------------------------------------|
 G-77-77-77-----66-----------------------------------44-44-44---66--------|
 D-77-77-77-----66---99-99-99----77---55-55-55---77--44-44-44---66--------|
 A-55-55-55-----44---99-99-99----77---55-55-55---77--22-22-22---44--------|
 E-------------------77-77-77----55---33-33-33---55-----------------------|

 


 


 ayoko na munang makita ka


 ayoko na munang makasama ka


 gusto ko sanang mapag isa


 `di na yata tayo masya


 `di na yata kakayanin pa


 gusto ko munang mapag isa


 


 


 ayoko na munag lapitan ka


 ayoko na munang maka usap ka


 gusto sanang mapag isa


 `di na tayo mag kasundo


 sumisikip na ang ating mundo


 time out muna tayo


 


 [refrain] 


 

 
 e----------------------------|
 B----------------------------|
 G--66-66-66--88---99---------|
 D--66-66-66--88---99---------|
 A--44-44-44--66---77---------|
 E----------------------------|

 


 siguro`y ito na nga


 

 
 e---------------------|
 B---------------------|
 G--66-66-66-----------|
 D--66-66-66-----------|
 A--44-44-44-----------|
 E---------------------|

 


 intindihin mo na


 

 
 e--------------------------|
 B--------------------------|
 G--66-66-66--55-55---------|
 D--66-66-66--55-55--77-77--|
 A--44-44-44--33-33--77-77--|
 E-------------------55-55--| 

 


 kailangan lang natin ng pahinga


 


 


 


 

 
 e--------------------------------|
 B-------------------6666---------|
 G--999999-----------7777---------|
 D--999999--666666---7777---------|
 A--777777--666666---5555---------|
 E----------444444----------------|

 


 


 palayain ang isa`t isa


 


 

 
 e----------------------------|
 B----------------------------|
 G--44444--9999---------------|
 D--44444--9999---------------|
 A--22222--7777---------------|
 E----------------------------|


Important: The song above is NOT stored on the Chordie server. The original song is hosted at www.guitartabs.cc. Chordie works as a search engine and provides on-the-fly formatting. Chordie does not index songs against artists'/composers' will. To remove this song please click here.

This song is displayed as text-only. Transposing and tuning is only available for chordpro-songs.
Rate #5 of 11 versions

Jango Player

Login - add to songbook

SHARE PAGE  




You need to log in to post comments