Guitar Tabs, Chords and Lyrics
Server problems seems to be fixed. Chordie has been experiencing problems with songs disappearing. These issues now seems to be fixed, but still verifying the fix. If you find anything strange, please email admin@chordie.com.


Waffle  Sevendust

Band - Sevendust
Song - Waffle
Album - Home (1999)
Gtr I (Bb Gb B E Ab Db) - 'Clean Gtr (Clint Lowery)'
Gtr II (Bb Gb B E Ab Db) - 'Dist Gtr I (John Connolly)'
Gtr III (Bb Gb B E Ab Db) - 'Dist Gtr II (Clint Lowery)'
Gtr IV (Bb Gb B E Ab Db) - 'Additional Clean Gtr'
Intro
Q=95
[Bm/C#]  
[4/4] Gtr I
E S S +E E S S +Q. E S S +E E S S +Q.
 
 |-----------------------|-----------------------|
 |-----------------------|-----------------------|
 |-----4-(4)-----4-(4)---|-----4-(4)-----4-(4)---|
 |---0---------0---------|---0---------0---------|
 |-4---------4-----------|-4---------4-----------|
 |-----------------------|-----------------------|

|
| Gtr II
| W W
 
 |-----------------------|-----------------------|
 |-----------------------|-----------------------|
 |-----------------------|-----------------------|
 |-----------------------|-----------------------|
 |-----------------------|-----------------------|
 |-----------------------|-----------------------|

E S S +E E S S +Q. [Bm] E S S +E E S S +Q.
 
 |--------------------------|---------------------------|
 |--------------------------|---------------------------|
 |------4-(4)-------4-(4)---|------4-(4)-------4-(4)----|
 |----0----------0----------|----0----------0-----------|
 |--4---------4-------------|--2---------2--------------|
 |--------------------------|---------------------------|

|
| < > < >
| H +H H +H
 
 |--------------------------|---------------------------|
 |--------------------------|---------------------------|
 |--------------------------|---------------------------|
 |--------------------------|---------------------------|
 |-h4-----------(4)---------|-h2-----------(2)----------|
 |--------------------------|---------------------------|

[Bm/C#]Gtr I
E S S +E E S S +Q. E S S +E E S S +Q.
 
 |--------------------------|--------------------------|
 |--------------------------|--------------------------|
 |------4-(4)-------4-(4)---|------4-(4)-------4-(4)---|
 |----0----------0----------|----0----------0----------|
 |--4---------4-------------|--4---------4-------------|
 |--------------------------|--------------------------|

|
| < > < >
| H +H H +H
 
 |--------------------------|--------------------------|
 |--------------------------|--------------------------|
 |--------------------------|--------------------------|
 |--------------------------|--------------------------|
 |-h4-----------(4)---------|-h4-----------(4)---------|
 |--------------------------|--------------------------|

E S S +E E S S +Q. [Bm] E S S +E E S S +Q.
 
 |--------------------------|----------------------------|
 |--------------------------|----------------------------|
 |------4-(4)-------4-(4)---|-------4-(4)-----4-(4)------|
 |----0----------0----------|-----0---------0------------|
 |--4---------4-------------|--2----------2--------------|
 |--------------------------|----------------------------|

|
| < > <
| H +H H. +Q
 
 |--------------------------|----------------------------|
 |--------------------------|----------------------------|
 |--------------------------|----------------------------|
 |-h3-----------(3)---------|-h4--------------------(4)--|
 |--------------------------|----------------------------|
 |--------------------------|----------------------------|

N.C.(C#5)
Gtrs II, III
 
 PM-----------------------------------------|

e S S S S e S S S S Q e S S S S e S S S S S S E
 
 |------------------------|---------------------------------|
 |------------------------|---------------------------------|
 |------------------------|---------------------------------|
 |------------------------|---------------------------------|
 |------------------------|---------------------------------|
 |-0---0-0-0-0---0-0------|-0---0-0-0-0---0-0------|
 PM---------------------------------------|

e S S S S e S S S S Q e S S S S e S S S S Q
 
 |------------------------|--------------------------||
 |------------------------|--------------------------||
 |------------------------|--------------------------||
 |------------------------|--------------------------||
 |------------------------|--------------------------||
 |-0---0-0-0-0---0-0------|-0---0-0-0-0---0-0--------||

Verse I
[Bm/C#]Gtr I
E S S +E E S S +Q. E S S +E E S S +Q.
 
 |-----------------------|--------------------------------|
 |-----------------------|--------------------------------|
 |-----4-(4)-----4-(4)---|-------4-(4)---------4-(4)------|
 |---0---------0---------|-----0------------0-------------|
 |-4---------4-----------|--4-----------4-----------------|
 |-----------------------|--------------------------------|

|
| Gtr II
| < > < >
| W Q. +E Q. +E
 
 |-----------------------|--------------------------------|
 |-----------------------|--------------------------------|
 |-----------------------|--------------------------------|
 |-----------------------|-h3----------(3)-h6---------(6)-|
 |-----------------------|--------------------------------|
 |-----------------------|--------------------------------|

E S S +E E S S +Q. [Bm] E S S +E E S S +Q.
 
 |--------------------------|--------------------------|
 |--------------------------|--------------------------|
 |------4-(4)-------4-(4)---|------4-(4)-------4-(4)---|
 |----0----------0----------|----0----------0----------|
 |--4---------4-------------|--2---------2-------------|
 |--------------------------|--------------------------|

|
| < > < >
| H +H H +H
 
 |--------------------------|--------------------------|
 |--------------------------|--------------------------|
 |--------------------------|--------------------------|
 |-h7-----------(7)---------|-h4-----------(4)---------|
 |--------------------------|--------------------------|
 |--------------------------|--------------------------|

[Bm/C#] E S S +E E S S +Q. E S S +E E S S +Q.
 
 |----------------------------|--------------------------------|
 |----------------------------|--------------------------------|
 |--------4-(4)-------4-(4)---|-------4-(4)---------4-(4)------|
 |------0----------0----------|-----0------------0-------------|
 |---4----------4-------------|--4-----------4-----------------|
 |----------------------------|--------------------------------|

|
| < > < > < >
| H +H Q. +E Q. +E
 
 |----------------------------|--------------------------------|
 |----------------------------|--------------------------------|
 |----------------------------|--------------------------------|
 |----------------------------|-h3----------(3)-h6---------(6)-|
 |-h(4)-----------(4)---------|--------------------------------|
 |----------------------------|--------------------------------|

E S S +E E S S +Q. [Bm] E S S +E E S S +Q.
 
 |--------------------------|--------------------------|
 |--------------------------|--------------------------|
 |------4-(4)-------4-(4)---|------4-(4)-------4-(4)---|
 |----0----------0----------|----0----------0----------|
 |--4---------4-------------|--2---------2-------------|
 |--------------------------|--------------------------|

|
| < > < >
| H +H H +H
 
 |--------------------------|--------------------------|
 |--------------------------|--------------------------|
 |--------------------------|--------------------------|
 |-h7-----------(7)---------|-h4-----------(4)---------|
 |--------------------------|--------------------------|
 |--------------------------|--------------------------|

[Bm/C#] E S S +E E S S +Q. E S S +E E S S +Q.
 
 |----------------------------|--------------------------------|
 |----------------------------|--------------------------------|
 |--------4-(4)-------4-(4)---|-------4-(4)---------4-(4)------|
 |------0----------0----------|-----0------------0-------------|
 |---4----------4-------------|--4-----------4-----------------|
 |----------------------------|--------------------------------|

|
| < > < > < >
| H +H Q. +E Q. +E
 
 |----------------------------|--------------------------------|
 |----------------------------|--------------------------------|
 |----------------------------|--------------------------------|
 |----------------------------|-h3----------(3)-h6---------(6)-|
 |-h(4)-----------(4)---------|--------------------------------|
 |----------------------------|--------------------------------|

E S S +E E S S +Q. [Bm] E S S +E E S S +Q.
 
 |--------------------------|----------------------------||
 |--------------------------|----------------------------||
 |------4-(4)-------4-(4)---|-------4-(4)-----4-(4)------||
 |----0----------0----------|-----0---------0------------||
 |--4---------4-------------|--2----------2--------------||
 |--------------------------|----------------------------||

|
| < > <
| H +H H. +Q
 
 |--------------------------|----------------------------||
 |--------------------------|----------------------------||
 |--------------------------|----------------------------||
 |-h7-----------(7)---------|-h9--------------------(9)--||
 |--------------------------|----------------------------||
 |--------------------------|----------------------------||

Pre Chorus
$
N.C.(C#5)
Gtrs II, III
 
 PM-----------------------------------------|

e S S S S e S S S S Q e S S S S e S S S S S S E
 
 |------------------------|---------------------------------|
 |------------------------|---------------------------------|
 |------------------------|---------------------------------|
 |------------------------|---------------------------------|
 |------------------------|---------------------------------|
 |-0---0-0-0-0---0-0------|-0---0-0-0-0---0-0------|
 PM---------------------------------------|

e S S S S e S S S S Q e S S S S e S S S S Q
 
 |------------------------|--------------------------||
 |------------------------|--------------------------||
 |------------------------|--------------------------||
 |------------------------|--------------------------||
 |------------------------|--------------------------||
 |-0---0-0-0-0---0-0------|-0---0-0-0-0---0-0--------||

Chorus
[C#5] [B5] [F5] [F#5D5]  
 
 PM--------| PM PM--------|

E. S +E E +S E. S S S S e Q e S S e S S S S
 
 ||-----------------------------|----------------------|
 ||o----------------------------|----------------------|
 ||--/6--4-(4)------------------|----------------------|
 ||-----------------------------|----------------------|
 ||o-/4--2-(2)------------------|----------------------|
 ||------------4-(4)-5\-1-1---1-|-1----1---1-1---1-1-1-|

1.
[C#5] [B5] [F5] [F#5D5] [D5]  
 
 PM--------| PM PM-------------

E. S +E E +S E. S S S S e E +E e S S e S S S S
 
 |----------------------------|----------------------------||
 |----------------------------|---------------------------o||
 |-/6--4-(4)------------------|----------------------------||
 |----------------------------|---3b4r(3)------------------||
 |-/4--2-(2)------------------|---3b4r(3)-----------------o||
 |-----------4-(4)-5\-1-1---1-|-1---------1---1-1---1-1-1--||

2.
To Coda
[D5]  
 
 -| PM PM--------|

e E +E e S S e S S S S
 
 |-----------------------------||
 |-----------------------------||
 |-----------------------------||
 |---3b4r(3)-------------------||
 |---3b4r(3)-------------------||
 |-1---------1---1-1---1-1-(1)-||

Verse II
N.C.(C#m)
Gtr I
W W
 
 |----------|---------------------|
 |----------|---------------------|
 |----------|---------------------|
 |----------|---------------------|
 |----------|---------------------|
 |----------|---------------------|

|
| Gtr II
| < > < >
| W Q. +E Q. +E
 
 |----------|---------------------|
 |----------|---------------------|
 |----------|---------------------|
 |----------|-h3----(3)-h6----(6)-|
 |----------|---------------------|
 |----------|---------------------|

( Tab from: http://www.guitartabs.cc/tabs/s/sevendust/waffle_tab_ver_6.html )
[Bm/C#] E S S +E E S S +Q. [Bm] E S S +E [Bm/D] E S S +Q.
 
 |--------------------------|-------------------------------|
 |----3----------3----------|----3-----------------0-(0)----|
 |------4-(4)-------4-(4)---|--4---4-(4)----7---7-----------|
 |--------------------------|-------------------------------|
 |--4---------4-------------|--2------------5---------------|
 |--------------------------|-------------------------------|

|
| < > < >
| H +H Q +E +E +H
 
 |--------------------------|-------------------------------|
 |--------------------------|-------------------------------|
 |--------------------------|-------------------------------|
 |-h7-----------(7)---------|-h4-----(4)b5r(4)-(4)----------|
 |--------------------------|-------------------------------|
 |--------------------------|-------------------------------|

[Bm/C#] E S S +E E S S +Q. E S S +E E S S +Q.
 
 |----------------------------|--------------------------------|
 |------3----------3----------|-----3------------3-------------|
 |--------4-(4)-------4-(4)---|-------4-(4)---------4-(4)------|
 |----------------------------|--------------------------------|
 |---4----------4-------------|--4-----------4-----------------|
 |----------------------------|--------------------------------|

|
| < > < > < >
| H +H Q. +E Q. +E
 
 |----------------------------|--------------------------------|
 |----------------------------|--------------------------------|
 |----------------------------|--------------------------------|
 |----------------------------|-h3----------(3)-h6---------(6)-|
 |-h(4)-----------(4)---------|--------------------------------|
 |----------------------------|--------------------------------|

E S S +E E S S +Q. [Bm] E S S +E [Bm/D]E S S +Q.
 
 |--------------------------|--------------------------|
 |----3----------3----------|----3-------------0-(0)---|
 |------4-(4)-------4-(4)---|--4---4-(4)-7--7----------|
 |--------------------------|--------------------------|
 |--4---------4-------------|--2---------5-------------|
 |--------------------------|--------------------------|

|
| < > < >
| H +H H +H
 
 |--------------------------|--------------------------|
 |--------------------------|--------------------------|
 |--------------------------|--------------------------|
 |-h7-----------(7)---------|-h4-----------(4)---------|
 |--------------------------|--------------------------|
 |--------------------------|--------------------------|

[Bm/C#] E S S +E E S S +Q. E S S +E E S S +Q.
 
 |---------------------------------------------|-----------------------------
 |--------3---------------3--------------------|-------3----------------3----
 |-----------4-(4)------------4-(4)------------|---------4-(4)-------------4-
 |---------------------------------------------|-----------------------------
 |---4---------------4-------------------------|--4----------------4---------
 |---------------------------------------------|-----------------------------

|
| < > < > < >
| H +H Q. +E Q. +E
 
 |---------------------------------------------|-----------------------------
 |---------------------------------------------|-----------------------------
 |---------------------------------------------|-----------------------------
 |---------------------------------------------|-h3---------------(3)--h6----
 |-h(4)------------------(4)-------------------|-----------------------------
 |---------------------------------------------|-----------------------------

|
| Gtr IV
| S S S S S S S S S S S S S S S S S S S S S S S S S S S S S S S S
 
 |---------------------------------------------|-----------------------------
 |---------------------------------------------|-----------------------------
 |---------------------------------------------|-----------------------------
 |--10--7h9-10--7h9-10-7h=9--10--7h9-10-7h9-10-|--7h9-10-7h=9--10--7h9-10--7
 |---------------------------------------------|-----------------------------
 |---------------------------------------------|-----------------------------

D.S. al Coda
E S S +E E S S +Q. [Bm] E S S +E [Bm/D] E S S +Q.
 
 |------------------------------------------|--------------------------------
 |-------3---------------3------------------|-------3-----------------0-(0)--
 |---------4-(4)-----------4-(4)------------|--4-------4-(4)---7---7---------
 |------------------------------------------|--------------------------------
 |--4--------------4------------------------|--2---------------5-------------
 |------------------------------------------|--------------------------------

|
| < > <
| H +H H. +Q
 
 |------------------------------------------|--------------------------------
 |------------------------------------------|--------------------------------
 |------------------------------------------|-------------------------------
 |-h7-------------------(7)-----------------|-h9-----------------------------
 |-------------------_----------------------|--------------------------------
 |------------------------------------------|--------------------------------

|
| S S S S S S S S S S S S S S S S S S S S S S S S S S S S S S S S
 
 |------------------------------------------|--------------------------------
 |------------------------------------------|--------------------------------
 |------------------------------------------|--------------------------------
 |--9-10-7h9-10--7h9-10--7h9-10--7h9-10-7h9-|-10--7h9-10--7h9-10-7h9-10--7h9-
 |------------------------------------------|--------------------------------
 |------------------------------------------|--------------------------------

Bridge
&
[B5C#5]Gtrs II, III[B5] [F5] [F#5] [E5] [D5C#5]
S S S S +S S S S S S +S S E S S S S S S +S S S S S S S S E E 4x
 
 ||------------------------------------|---------------------------------||
 ||o-----------------------------------|--------------------------------o||
 ||--4s6-6-6-(6)-6-6s4-4-4-(4)-4-------|---------------------------------||
 ||------------------------------------|---------------------------------||
 ||o-2s4-4-4-(4)-4-4s2-2-2-(2)-2-------|--------------------------------o||
 ||------------------------------4-4-4-|-4s5-5-5-(5)-5-5-5\-3-3-3-3-1-0--||

Chorus III
N.C.(C#5)
 
 PM-----------------------------------------|

e S S S S e S S S S Q e S S S S e S S S S S S E
 
 |------------------------|---------------------------------|
 |------------------------|---------------------------------|
 |------------------------|---------------------------------|
 |------------------------|---------------------------------|
 |------------------------|---------------------------------|
 |-0---0-0-0-0---0-0------|-0---0-0-0-0---0-0------|
 PM-----------------------------------------|

e S S S S e S S S S Q e S S S S e S S S S S S E
 
 |------------------------|----------------------------------|
 |------------------------|----------------------------------|
 |------------------------|----------------------------------|
 |------------------------|----------------------------------|
 |------------------------|----------------------------------|
 |-0---0-0-0-0---0-0------|-0---0-0-0-0---0-0-------|
 PM-----------------------------------------|

e S S S S e S S S S Q e S S S S e S S S S S S E
 
 |------------------------|---------------------------------|
 |------------------------|---------------------------------|
 |------------------------|---------------------------------|
 |------------------------|---------------------------------|
 |------------------------|---------------------------------|
 |-0---0-0-0-0---0-0------|-0---0-0-0-0---0-0------|
 PM-----------------------------------------| PM|

e S S S S e S S S S Q e S S S S e S S S S E S S
 
 |------------------------|----------------------------||
 |------------------------|----------------------------||
 |------------------------|----------------------------||
 |------------------------|----------------------------||
 |------------------------|----------------------------||
 |-0---0-0-0-0---0-0------|-0---0-0-0-0---0-0-----0-0--||

Outro
C#5 B5 N.C. D5
Gtr II
E. S +E E +S E. S S S S S S S S S S S S S S S S S S S S
 
 ||------------------------------|-------------------------------------------
 ||o-----------------------------|-------------------------------------------
 ||---------------------/7-7-7-7-|-7-7-7---7--7--7-7-7-7S13-13-13-13s14-14-14
 ||--/6--4-(4)-------------------|-------------------------------------------
 ||o-/4--2-(2)----------/5-5-5-5-|-5-5-5---5--5--5-5-5-5S11-11-11-11s12-12-12
 ||------------4-(4)-5\----------|-------------------------------------------

|
| Gtr III
 
 | PM--------| PM PM---------------|

| E. S +E E +S E. S S S S e E +E e S S e S S S S
 
 ||------------------------------|-------------------------------------------
 ||o-----------------------------|-------------------------------------------
 ||--/6--4-(4)-------------------|-------------------------------------------
 ||------------------------------|-----3b4r==(3)-----------------------------
 ||o-/4--2-(2)-------------------|-----3b4r==(3)-----------------------------
 ||------------4-(4)-5\--1-1---1-|-1---------------1------1--1--------1--1--1

1.
[C#5] [B5] [F5] [F#5D5]  
 
 PM--------| PM PM------|

E. S +E E +S E. S S S S e Q e S S e S S e
 
 |----------------------------|---------------------||
 |----------------------------|--------------------o||
 |----------------------------|---------------------||
 |-/6--4-(4)------------------|---------------------||
 |-/4--2-(2)------------------|--------------------o||
 |-----------4-(4)-5\-1-1---1-|-1----1---1-1---1-1--||

|
 
 | PM--------| PM PM------|

| E. S +E E +S E. S S S S e Q e S S e S S e
 
 |----------------------------|---------------------||
 |----------------------------|--------------------o||
 |-/6--4-(4)------------------|---------------------||
 |----------------------------|---------------------||
 |-/4--2-(2)------------------|--------------------o||
 |-----------4-(4)-5\-1-1---1-|-1----1---1-1---1-1--||

2.
[C#5] [B5] [F5] [F#5D5]  
 
 PM--------| PM PM|

E. S +E E +S E. S S S S e Q e S S e Q
 
 |----------------------------|-----------------*|
 |----------------------------|-----------------*|
 |----------------------------|-----------------*|
 |-/6--4-(4)------------------|-----------------*|
 |-/4--2-(2)------------------|-----------------*|
 |-----------4-(4)-5\-1-1---1-|-1----1---1-1----*|

|
 
 | PM--------| PM PM|

| E. S +E E +S E. S S S S e Q e S S e Q
 
 |----------------------------|-----------------*|
 |----------------------------|-----------------*|
 |-/6--4-(4)------------------|-----------------*|
 |----------------------------|-----------------*|
 |-/4--2-(2)------------------|-----------------*|
 |-----------4-(4)-5\-1-1---1-|-1----1---1-1----*|
 --------------------------------------------------------------------------------

Duration Legend
 
 ---------------
 W - whole; H - half; Q - quarter; E - 8th; S - 16th; T - 32nd; X - 64th; a - acciaccatura

+ - note tied to previous; . - note dotted; .. - note double dotted
Uncapitalized letters represent notes that are staccato (1/2 duration)
Irregular groupings are notated above the duration line
Duration letters will always appear directly above the note/fret number it represents the
duration for. Duration letters with no fret number below them represent rests. Multi-
bar rests are notated in the form Wxn, where n is the number of bars to rest for. Low
melody durations appear below the staff
Tablature Legend
 
 ----------------

h - hammer-on
p - pull-off
b - bend
pb - pre-bend
r - bend release (if no number after the r, then release immediately)
/\ - slide into or out of (from/to "nowhere")
s - legato slide
S - shift slide
- natural harmonic
(n) - artificial harmonic
n(n) - tapped harmonic
~ - vibrato
tr - trill
T - tap
TP - trem. picking
PM - palm muting
\n/ - tremolo bar dip; n = amount to dip
\n - tremolo bar down
n/ - tremolo bar up
/n\ - tremolo bar inverted dip
= - hold bend; also acts as connecting device for hammers/pulls
- volume swell (louder/softer)
x - on rhythm slash represents muted slash
o - on rhythm slash represents single note slash
Misc Legend
 
 -----------

| - bar
|| - double bar
||o - repeat start
o|| - repeat end
*| - double bar (ending)
: - bar (freetime)
$ - Segno
& - Coda
Tempo markers - = BPM(8/16=s8/s16), where s8 = swing 8ths, s16 = swing 16ths

Important: The song above is NOT stored on the Chordie server. The original song is hosted at www.guitartabs.cc. Chordie works as a search engine and provides on-the-fly formatting. Chordie does not index songs against artists'/composers' will. To remove this song please click here.

Text color:
Chord color:
Chord grids: 
Font size:    
Page size: 

B5 Bm Bm/C# Bm/D C#5 D5 E5 F#5 F5
Rate #1 of 2 versions

Jango Player

Login - add to songbook

SHARE PAGE  




You need to log in to post comments