Guitar Tabs, Chords and Lyrics
Major upgrade!! After one year development the new version of Chordie is now online! Please give feedback.


Alipin  Shamrock

"ALIPIN"
Tabbed by: mark ashley buendia
Band: Shamrock
Song: Alipin
E-mail: ashly_08ph@yahoo.com
standard tuning eadgbe
intro:
[G] [Bm] [C]  
 
 e|-----3------|-----2-|-0-----------0--------------|
 B|-3-----3----|-3-----|-------1---1---3--1---------|
 G|---------4--|---4---|-----0---0----------0-------|
 D|---5--------|-------|----------------------------|
 A|------------|-2-----|-3--------------------------|
 E|-3----------|-------|----------------------------|

[G] [Bm] [C]  
 
 e|-----3------|-----2-|-0-----------0---------------|
 B|-3-----3----|-3-----|-------1---1------1h3--------|
 G|---------4--|---4---|-----0---0-------0-----0-----|
 D|---5--------|-------|-----------------------------|
 A|------------|-2-----|-3---------------------------|
 E|-3----------|-------|-----------------------------|

I G Bm
Di ko man maamin
[C]Ikaw ay mahalaga sa akin[D]
[G]Di ko man maisip[Bm]
[C]Sa pag tulog ikaw ang panaginip[D]
Bridge:
[C]Malabo man ang aking pag ii[G]sip
[C]Sana dinggan mo ang sigaw nitong[D] damdamin
( Tab from: http://www.guitartabs.cc/tabs/s/shamrock/alipin_crd.html )
Chorus:
[C]Ako'y alipin mo kahit hindi bati'd[Em/G]
[C]Aaminin ko minsan ako'y manhid[Em/G]
[C]Sana ay iyong naririnig[G]
[C]Sa iyong yakap ako'y
na sasabik[D]
(repeat intro w/ harmonic at the last)
 
 e|------12*---------------------------|
 B|------12*---------------------------|
 G|------12*---------------------------|
 D|------12*---------------------------|
 A|------------------------------------|
 E|------------------------------------|

II (same chords as st. I)
Ayoko sa iba
Sa iyo ako ay hindi mag sasawa
Ano man ang iyong sabihin
Umasa ka ito'y
diringgin
Bridge:(same chrds)
Madalas man na parang aso't pusa
Giliw sa piling mo ako ay masaya
(repeat chorus)
(solo)
 
 e|-----------|------------------------------|
 B|-----------|------------------------------|
 G|-----------|------------------------------|
 D|-5-----7-7-|---5-7-7/9-10-9-7-7--5-5--7-7-|
 A|---5-5-----|-7----------------------------|
 E|-----------|------------------------------|
 e|-----------------|-----------------|----------------------|
 B|-----------------|-----------------|----------------------|
 G|-----------------|-----------------|----------------------|
 D|-----10-9-7-9----|-----10-9-5/7-5--|-7-5-4-5-5/10-9-7-5---|
 A|-5h7----------10-|-5h7-------------|--------------------5-|
 E|-----------------|-----------------|----------------------|

bridge:(same chords)
Pilit man abutin ang mga tala
Basta sakin wag kang mawawala
(repeat chorus)
chorus II(same chords)
Pagkat ikaw lang ang nais makatabi
Malamig man o ma init ang gabi
Nais ko sana iparating
Na ikaw lamang ang syang aking iibigin....
repeat intro
END:::
ilove you bhe......
ashly_08ph@yahoo.com

Important: The song above is NOT stored on the Chordie server. The original song is hosted at www.guitartabs.cc. Chordie works as a search engine and provides on-the-fly formatting. Chordie does not index songs against artists'/composers' will. To remove this song please click here.

Text color:
Chord color:
Chord grids: 
Font size:    
Page size: 

Bm C D G
Rate #1 of 13 versions

Jango Player

Login - add to songbook

SHARE PAGE  



You need to log in to post comments