Guitar Tabs, Chords and Lyrics
Major upgrade!! After one year development the new version of Chordie is now online! Please give feedback.


When   Shania Twain

 
 |-4-0-4-0---0-4-0-4-0---0-4-0-[4]-0---0-4-0---0-5-0---0---0-5-0-5-0---0-|
 |---------4-----------4-------------4-------4-------4---4-----------4---|
 |-----------------------------------------------------------------------|
 |-----------------------------------------------------------------------|
 |-----------------------------------------------------------------------|
 |-----------------------------------------------------------------------|
 |-5-0---0-4-0-4-0---0-4-0-4-0---0-4-0---0-5-0---0---0-5-0-4-0---0-------|
 |-----4-----------4-----------4-------4-------4---4-----------4---2-0---|
 |---------------------------------------------------------------------2-|
 |-----------------------------------------------------------------------|
 |-----------------------------------------------------------------------|
 |-----------------------------------------------------------------------|
 |----------------------0--0--0--0--0---0---0---0---0---0--0--0-|
 |-0--0--0--0--0--0--5--5--7--7--9--9--10--10--12--12--12-12-12-|
 |----1--2--2--4--4--4------------------------------------------|
 |--------------------------------------------------------------|
 |--------------------------------------------------------------|
 |--------------------------------------------------------------|
 |-7--7--5--0--0----------------|
 |-7--7--5--5--0--0--0--0-------|
 |----------------4--2--1-------|
 |-------------------------2----|
 |------------------------------|
 |------------------------------|


Important: The song above is NOT stored on the Chordie server. The original song is hosted at www.guitartabs.cc. Chordie works as a search engine and provides on-the-fly formatting. Chordie does not index songs against artists'/composers' will. To remove this song please click here.

This song is displayed as text-only. Transposing and tuning is only available for chordpro-songs.
Rate #1 of 2 versions

Jango Player

Login - add to songbook

SHARE PAGE  



You need to log in to post comments